ISO-10303-21;
HEADER;
FILE_DESCRIPTION (( 'STEP AP203' ),
    '1' );
FILE_NAME ('962937.step',
    '2021-10-28T09:23:13',
    ( '' ),
    ( '' ),
    'SwSTEP 2.0',
    'SolidWorks 2019',
    '' );
FILE_SCHEMA (( 'CONFIG_CONTROL_DESIGN' ));
ENDSEC;

DATA;
#1 = AXIS2_PLACEMENT_3D ( 'NONE', #87, #139, #190 ) ;
#2 = LOCAL_TIME ( 11, 23, 13.00000000000000000, #162 ) ;
#3 = APPLICATION_PROTOCOL_DEFINITION ( 'international standard', 'config_control_design', 1994, #5 ) ;
#4 = CARTESIAN_POINT ( 'NONE',  ( 1.326762908760390423E-13, 1.199999999999995293, 38.00000000000000000 ) ) ;
#5 = APPLICATION_CONTEXT ( 'configuration controlled 3d designs of mechanical parts and assemblies' ) ;
#6 = CARTESIAN_POINT ( 'NONE',  ( 4.189777606611760026E-14, 0.8249999999999985123, 12.00000000000000000 ) ) ;
#7 = APPROVAL_STATUS ( 'not_yet_approved' ) ;
#8 = ORIENTED_EDGE ( 'NONE', *, *, #174, .F. ) ;
#9 = DATE_AND_TIME ( #119, #142 ) ;
#10 = AXIS2_PLACEMENT_3D ( 'NONE', #45, #185, #64 ) ;
#11 = CALENDAR_DATE ( 2021, 28, 10 ) ;
#12 = SHAPE_DEFINITION_REPRESENTATION ( #151, #76 ) ;
#13 = CARTESIAN_POINT ( 'NONE',  ( 1.906192921252232855E-15, -6.686024735685322183E-17, 0.5459553513993090634 ) ) ;
#14 = DIRECTION ( 'NONE',  ( 0.0000000000000000000, 1.000000000000000000, 0.0000000000000000000 ) ) ;
#15 = DIRECTION ( 'NONE',  ( -3.491481338843133355E-15, 1.224646799147353207E-16, -1.000000000000000000 ) ) ;
#16 = DIRECTION ( 'NONE',  ( -3.491481338843133355E-15, 1.224646799147353207E-16, -1.000000000000000000 ) ) ;
#17 = EDGE_CURVE ( 'NONE', #23, #23, #80, .T. ) ;
#18 = AXIS2_PLACEMENT_3D ( 'NONE', #112, #15, #78 ) ;
#19 = VERTEX_POINT ( 'NONE', #4 ) ;
#20 = CC_DESIGN_PERSON_AND_ORGANIZATION_ASSIGNMENT ( #150, #133, ( #26 ) ) ;
#21 = VERTEX_POINT ( 'NONE', #37 ) ;
#22 = CIRCLE ( 'NONE', #171, 0.8249999999999999556 ) ;
#23 = VERTEX_POINT ( 'NONE', #169 ) ;
#24 = ORIENTED_EDGE ( 'NONE', *, *, #46, .T. ) ;
#25 = CONICAL_SURFACE ( 'NONE', #96, 1.499999999999995559, 1.221730476396026388 ) ;
#26 = PRODUCT ( '962937', '962937', '', ( #36 ) ) ;
#27 = ADVANCED_FACE ( 'NONE', ( #83, #110 ), #86, .T. ) ;
#28 = PERSON_AND_ORGANIZATION_ROLE ( 'creator' ) ;
#29 = EDGE_LOOP ( 'NONE', ( #121 ) ) ;
#30 = PLANE ( 'NONE',  #175 ) ;
#31 = CARTESIAN_POINT ( 'NONE',  ( 5.069328644753035700E-14, -1.785550819490211108E-15, 14.51913429510898013 ) ) ;
#32 = CARTESIAN_POINT ( 'NONE',  ( 0.0000000000000000000, 0.0000000000000000000, 0.0000000000000000000 ) ) ;
#33 = CIRCLE ( 'NONE', #91, 0.8249999999999999556 ) ;
#34 = FACE_OUTER_BOUND ( 'NONE', #164, .T. ) ;
#35 = CC_DESIGN_PERSON_AND_ORGANIZATION_ASSIGNMENT ( #94, #57, ( #222 ) ) ;
#36 = MECHANICAL_CONTEXT ( 'NONE', #184, 'mechanical' ) ;
#37 = CARTESIAN_POINT ( 'NONE',  ( 1.048406106688730634E-15, -0.8249999999999999556, 0.3002754432696206899 ) ) ;
#38 = PERSON_AND_ORGANIZATION ( #186, #182 ) ;
#39 = PERSON_AND_ORGANIZATION_ROLE ( 'creator' ) ;
#40 = CC_DESIGN_PERSON_AND_ORGANIZATION_ASSIGNMENT ( #62, #28, ( #157 ) ) ;
#41 = CC_DESIGN_SECURITY_CLASSIFICATION ( #222, ( #168 ) ) ;
#42 = DIRECTION ( 'NONE',  ( 0.0000000000000000000, 1.000000000000000000, 0.0000000000000000000 ) ) ;
#43 = DIRECTION ( 'NONE',  ( -5.135813185032644414E-31, -1.000000000000000000, -1.445602896647343601E-16 ) ) ;
#44 = CC_DESIGN_APPROVAL ( #223, ( #222 ) ) ;
#45 = CARTESIAN_POINT ( 'NONE',  ( 0.0000000000000000000, 0.0000000000000000000, 0.0000000000000000000 ) ) ;
#46 = EDGE_CURVE ( 'NONE', #19, #19, #200, .T. ) ;
#47 = EDGE_LOOP ( 'NONE', ( #117 ) ) ;
#48 = FACE_OUTER_BOUND ( 'NONE', #47, .T. ) ;
#49 = CONICAL_SURFACE ( 'NONE', #206, 1.499999999999998446, 0.2617993877991501295 ) ;
#50 = FACE_BOUND ( 'NONE', #201, .T. ) ;
#51 = EDGE_LOOP ( 'NONE', ( #203 ) ) ;
#52 = VERTEX_POINT ( 'NONE', #6 ) ;
#53 = ADVANCED_FACE ( 'NONE', ( #81 ), #178, .F. ) ;
#54 = APPROVAL_PERSON_ORGANIZATION ( #38, #223, #215 ) ;
#55 = COORDINATED_UNIVERSAL_TIME_OFFSET ( 1, 0, .AHEAD. ) ;
#56 = EDGE_CURVE ( 'NONE', #52, #52, #106, .T. ) ;
#57 = PERSON_AND_ORGANIZATION_ROLE ( 'classification_officer' ) ;
#58 = ADVANCED_FACE ( 'NONE', ( #218, #99 ), #193, .T. ) ;
#59 = AXIS2_PLACEMENT_3D ( 'NONE', #32, #134, #167 ) ;
#60 = EDGE_LOOP ( 'NONE', ( #24 ) ) ;
#61 = CARTESIAN_POINT ( 'NONE',  ( 1.326762908760390423E-13, -4.653657836759941941E-15, 38.00000000000000000 ) ) ;
#62 = PERSON_AND_ORGANIZATION ( #186, #182 ) ;
#63 = DIRECTION ( 'NONE',  ( 0.0000000000000000000, 1.000000000000000000, 0.0000000000000000000 ) ) ;
#64 = DIRECTION ( 'NONE',  ( 4.275831445896958607E-31, 1.000000000000000000, 1.224646799147353207E-16 ) ) ;
#65 = ORIENTED_EDGE ( 'NONE', *, *, #17, .F. ) ;
#66 = EDGE_CURVE ( 'NONE', #120, #120, #33, .T. ) ;
#67 = ADVANCED_FACE ( 'NONE', ( #159 ), #25, .T. ) ;
#68 = CARTESIAN_POINT ( 'NONE',  ( 0.0000000000000000000, 0.0000000000000000000, 0.0000000000000000000 ) ) ;
#69 =( NAMED_UNIT ( * ) SI_UNIT ( $, .STERADIAN. ) SOLID_ANGLE_UNIT ( ) );
#70 = CC_DESIGN_APPROVAL ( #104, ( #168 ) ) ;
#71 = DIRECTION ( 'NONE',  ( 4.293794133377663121E-31, 1.000000000000000000, 1.229791517316362731E-16 ) ) ;
#72 =( LENGTH_UNIT ( ) NAMED_UNIT ( * ) SI_UNIT ( .MILLI., .METRE. ) );
#73 = CC_DESIGN_PERSON_AND_ORGANIZATION_ASSIGNMENT ( #123, #214, ( #168 ) ) ;
#74 = COORDINATED_UNIVERSAL_TIME_OFFSET ( 1, 0, .AHEAD. ) ;
#75 = COORDINATED_UNIVERSAL_TIME_OFFSET ( 1, 0, .AHEAD. ) ;
#76 = ADVANCED_BREP_SHAPE_REPRESENTATION ( '962937', ( #128, #127, #59 ), #149 ) ;
#77 = DATE_AND_TIME ( #92, #197 ) ;
#78 = DIRECTION ( 'NONE',  ( 4.275831445896958607E-31, 1.000000000000000000, 1.224646799147353207E-16 ) ) ;
#79 = PERSON_AND_ORGANIZATION ( #186, #182 ) ;
#80 = CIRCLE ( 'NONE', #211, 1.499999999999998446 ) ;
#81 = FACE_OUTER_BOUND ( 'NONE', #97, .T. ) ;
#82 = PERSON_AND_ORGANIZATION ( #186, #182 ) ;
#83 = FACE_OUTER_BOUND ( 'NONE', #138, .T. ) ;
#84 = CC_DESIGN_PERSON_AND_ORGANIZATION_ASSIGNMENT ( #79, #39, ( #168 ) ) ;
#85 = CARTESIAN_POINT ( 'NONE',  ( 1.048406106688731029E-15, -3.677313604626936815E-17, 0.3002754432696208009 ) ) ;
#86 = CYLINDRICAL_SURFACE ( 'NONE', #10, 1.499999999999998224 ) ;
#87 = CARTESIAN_POINT ( 'NONE',  ( 4.189777606611760026E-14, 1.124819836996388690E-32, 12.00000000000000000 ) ) ;
#88 = DIRECTION ( 'NONE',  ( 0.0000000000000000000, -1.000000000000000000, 0.0000000000000000000 ) ) ;
#89 = CC_DESIGN_DATE_AND_TIME_ASSIGNMENT ( #109, #108, ( #222 ) ) ;
#90 = ORIENTED_EDGE ( 'NONE', *, *, #56, .F. ) ;
#91 = AXIS2_PLACEMENT_3D ( 'NONE', #220, #129, #180 ) ;
#92 = CALENDAR_DATE ( 2021, 28, 10 ) ;
#93 = DIRECTION ( 'NONE',  ( -3.491481338843133355E-15, 1.224646799147353207E-16, -1.000000000000000000 ) ) ;
#94 = PERSON_AND_ORGANIZATION ( #186, #182 ) ;
#95 = ORIENTED_EDGE ( 'NONE', *, *, #17, .T. ) ;
#96 = AXIS2_PLACEMENT_3D ( 'NONE', #13, #131, #43 ) ;
#97 = EDGE_LOOP ( 'NONE', ( #194 ) ) ;
#98 = DIRECTION ( 'NONE',  ( 3.491481338843133355E-15, -1.224646799147353207E-16, 1.000000000000000000 ) ) ;
#99 = FACE_BOUND ( 'NONE', #60, .T. ) ;
#100 = PRODUCT_RELATED_PRODUCT_CATEGORY ( 'detail', '', ( #26 ) ) ;
#101 = PLANE ( 'NONE',  #1 ) ;
#102 = DIRECTION ( 'NONE',  ( -3.491481338843133355E-15, 1.229791517316362731E-16, -1.000000000000000000 ) ) ;
#103 = FACE_OUTER_BOUND ( 'NONE', #212, .T. ) ;
#104 = APPROVAL ( #213, 'UNSPECIFIED' ) ;
#105 = CARTESIAN_POINT ( 'NONE',  ( 1.316288464743861212E-13, 1.499999999999995337, 37.69999999999999574 ) ) ;
#106 = CIRCLE ( 'NONE', #161, 0.8249999999999999556 ) ;
#107 = DIRECTION ( 'NONE',  ( -4.668921077302390398E-31, -1.000000000000000000, -1.314184451497581259E-16 ) ) ;
#108 = DATE_TIME_ROLE ( 'classification_date' ) ;
#109 = DATE_AND_TIME ( #195, #163 ) ;
#110 = FACE_OUTER_BOUND ( 'NONE', #172, .T. ) ;
#111 = ADVANCED_FACE ( 'NONE', ( #179 ), #30, .T. ) ;
#112 = CARTESIAN_POINT ( 'NONE',  ( 1.326762908760390423E-13, 8.998558695971077224E-33, 38.00000000000000000 ) ) ;
#113 = APPROVAL_PERSON_ORGANIZATION ( #82, #104, #173 ) ;
#114 = DIRECTION ( 'NONE',  ( -3.491481338843133355E-15, 1.229791517316362731E-16, -1.000000000000000000 ) ) ;
#115 = DIRECTION ( 'NONE',  ( -3.491481338843133355E-15, 1.229791517316362731E-16, -1.000000000000000000 ) ) ;
#116 = CLOSED_SHELL ( 'NONE', ( #111, #208, #67 ) ) ;
#117 = ORIENTED_EDGE ( 'NONE', *, *, #56, .T. ) ;
#118 = CARTESIAN_POINT ( 'NONE',  ( 1.316288464743861212E-13, -4.616918432785521081E-15, 37.69999999999999574 ) ) ;
#119 = CALENDAR_DATE ( 2021, 28, 10 ) ;
#120 = VERTEX_POINT ( 'NONE', #210 ) ;
#121 = ORIENTED_EDGE ( 'NONE', *, *, #66, .F. ) ;
#122 = CIRCLE ( 'NONE', #221, 1.499999999999999778 ) ;
#123 = PERSON_AND_ORGANIZATION ( #186, #182 ) ;
#124 = ORIENTED_EDGE ( 'NONE', *, *, #202, .T. ) ;
#125 = CLOSED_SHELL ( 'NONE', ( #27, #58, #53, #181, #191 ) ) ;
#126 = APPROVAL_STATUS ( 'not_yet_approved' ) ;
#127 = MANIFOLD_SOLID_BREP ( 'Corps-Déplacer/Copier1[2]', #116 ) ;
#128 = MANIFOLD_SOLID_BREP ( 'Corps-Déplacer/Copier1[1]', #125 ) ;
#129 = DIRECTION ( 'NONE',  ( -3.491481338843133355E-15, 1.229791517316362731E-16, -1.000000000000000000 ) ) ;
#130 = AXIS2_PLACEMENT_3D ( 'NONE', #61, #16, #146 ) ;
#131 = DIRECTION ( 'NONE',  ( 3.491481338843133355E-15, -1.224646799147353207E-16, 1.000000000000000000 ) ) ;
#132 = DESIGN_CONTEXT ( 'detailed design', #5, 'design' ) ;
#133 = PERSON_AND_ORGANIZATION_ROLE ( 'design_owner' ) ;
#134 = DIRECTION ( 'NONE',  ( 0.0000000000000000000, 0.0000000000000000000, 1.000000000000000000 ) ) ;
#135 = AXIS2_PLACEMENT_3D ( 'NONE', #68, #102, #71 ) ;
#136 = DIRECTION ( 'NONE',  ( 3.491481338843133355E-15, -1.229791517316362731E-16, 1.000000000000000000 ) ) ;
#137 = ORIENTED_EDGE ( 'NONE', *, *, #202, .F. ) ;
#138 = EDGE_LOOP ( 'NONE', ( #65 ) ) ;
#139 = DIRECTION ( 'NONE',  ( 3.491481338843133355E-15, -1.224646799147353207E-16, 1.000000000000000000 ) ) ;
#140 = SECURITY_CLASSIFICATION_LEVEL ( 'unclassified' ) ;
#141 = CARTESIAN_POINT ( 'NONE',  ( 4.189777606611760026E-14, 1.124819836996388690E-32, 12.00000000000000000 ) ) ;
#142 = LOCAL_TIME ( 11, 23, 13.00000000000000000, #74 ) ;
#143 = APPROVAL_DATE_TIME ( #77, #104 ) ;
#144 = CARTESIAN_POINT ( 'NONE',  ( 4.189777606611760026E-14, -1.475749820779635178E-15, 12.00000000000000000 ) ) ;
#145 = APPROVAL_DATE_TIME ( #176, #223 ) ;
#146 = DIRECTION ( 'NONE',  ( 0.0000000000000000000, 1.000000000000000000, 0.0000000000000000000 ) ) ;
#147 = DIRECTION ( 'NONE',  ( -3.491481338843133355E-15, 1.224646799147353207E-16, -1.000000000000000000 ) ) ;
#148 = ORIENTED_EDGE ( 'NONE', *, *, #66, .T. ) ;
#149 =( GEOMETRIC_REPRESENTATION_CONTEXT ( 3 ) GLOBAL_UNCERTAINTY_ASSIGNED_CONTEXT ( ( #158 ) ) GLOBAL_UNIT_ASSIGNED_CONTEXT ( ( #72, #152, #69 ) ) REPRESENTATION_CONTEXT ( 'NONE', 'WORKASPACE' ) );
#150 = PERSON_AND_ORGANIZATION ( #186, #182 ) ;
#151 = PRODUCT_DEFINITION_SHAPE ( 'NONE', 'NONE',  #157 ) ;
#152 =( NAMED_UNIT ( * ) PLANE_ANGLE_UNIT ( ) SI_UNIT ( $, .RADIAN. ) );
#153 = CARTESIAN_POINT ( 'NONE',  ( 5.069328644753035700E-14, -1.785550819490211108E-15, 14.51913429510898013 ) ) ;
#154 = CC_DESIGN_APPROVAL ( #199, ( #157 ) ) ;
#155 = VERTEX_POINT ( 'NONE', #105 ) ;
#156 = DATE_AND_TIME ( #198, #2 ) ;
#157 = PRODUCT_DEFINITION ( 'UNKNOWN', '', #168, #132 ) ;
#158 = UNCERTAINTY_MEASURE_WITH_UNIT (LENGTH_MEASURE( 1.000000000000000082E-05 ), #72, 'distance_accuracy_value', 'NONE');
#159 = FACE_OUTER_BOUND ( 'NONE', #51, .T. ) ;
#160 = DATE_TIME_ROLE ( 'creation_date' ) ;
#161 = AXIS2_PLACEMENT_3D ( 'NONE', #144, #115, #63 ) ;
#162 = COORDINATED_UNIVERSAL_TIME_OFFSET ( 1, 0, .AHEAD. ) ;
#163 = LOCAL_TIME ( 11, 23, 13.00000000000000000, #196 ) ;
#164 = EDGE_LOOP ( 'NONE', ( #148 ) ) ;
#165 = DIRECTION ( 'NONE',  ( -4.275831445896958607E-31, -1.000000000000000000, -1.224646799147353207E-16 ) ) ;
#166 = CARTESIAN_POINT ( 'NONE',  ( 1.326762908760390423E-13, -4.653657836759941941E-15, 38.00000000000000000 ) ) ;
#167 = DIRECTION ( 'NONE',  ( 1.000000000000000000, 0.0000000000000000000, 0.0000000000000000000 ) ) ;
#168 = PRODUCT_DEFINITION_FORMATION_WITH_SPECIFIED_SOURCE ( 'ANY', '', #26, .NOT_KNOWN. ) ;
#169 = CARTESIAN_POINT ( 'NONE',  ( 5.069328644753035700E-14, 1.499999999999996669, 14.51913429510898013 ) ) ;
#170 = FACE_OUTER_BOUND ( 'NONE', #177, .T. ) ;
#171 = AXIS2_PLACEMENT_3D ( 'NONE', #85, #147, #107 ) ;
#172 = EDGE_LOOP ( 'NONE', ( #124 ) ) ;
#173 = APPROVAL_ROLE ( '' ) ;
#174 = EDGE_CURVE ( 'NONE', #21, #21, #22, .T. ) ;
#175 = AXIS2_PLACEMENT_3D ( 'NONE', #141, #98, #165 ) ;
#176 = DATE_AND_TIME ( #11, #183 ) ;
#177 = EDGE_LOOP ( 'NONE', ( #95 ) ) ;
#178 = PLANE ( 'NONE',  #18 ) ;
#179 = FACE_OUTER_BOUND ( 'NONE', #29, .T. ) ;
#180 = DIRECTION ( 'NONE',  ( 0.0000000000000000000, 1.000000000000000000, 0.0000000000000000000 ) ) ;
#181 = ADVANCED_FACE ( 'NONE', ( #50, #170 ), #49, .T. ) ;
#182 = ORGANIZATION ( 'UNSPECIFIED', 'UNSPECIFIED', '' ) ;
#183 = LOCAL_TIME ( 11, 23, 13.00000000000000000, #75 ) ;
#184 = APPLICATION_CONTEXT ( 'configuration controlled 3d designs of mechanical parts and assemblies' ) ;
#185 = DIRECTION ( 'NONE',  ( -3.491481338843133355E-15, 1.224646799147353207E-16, -1.000000000000000000 ) ) ;
#186 = PERSON ( 'UNSPECIFIED', 'UNSPECIFIED', 'UNSPECIFIED', ('UNSPECIFIED'), ('UNSPECIFIED'), ('UNSPECIFIED') ) ;
#187 = DIRECTION ( 'NONE',  ( -3.491481338843133355E-15, 1.224646799147353207E-16, -1.000000000000000000 ) ) ;
#188 = AXIS2_PLACEMENT_3D ( 'NONE', #166, #93, #14 ) ;
#189 = PERSON_AND_ORGANIZATION ( #186, #182 ) ;
#190 = DIRECTION ( 'NONE',  ( -4.275831445896958607E-31, -1.000000000000000000, -1.224646799147353207E-16 ) ) ;
#191 = ADVANCED_FACE ( 'NONE', ( #48 ), #101, .F. ) ;
#192 = APPROVAL_ROLE ( '' ) ;
#193 = CONICAL_SURFACE ( 'NONE', #130, 1.199999999999999956, 0.7853981633974453924 ) ;
#194 = ORIENTED_EDGE ( 'NONE', *, *, #46, .F. ) ;
#195 = CALENDAR_DATE ( 2021, 28, 10 ) ;
#196 = COORDINATED_UNIVERSAL_TIME_OFFSET ( 1, 0, .AHEAD. ) ;
#197 = LOCAL_TIME ( 11, 23, 13.00000000000000000, #55 ) ;
#198 = CALENDAR_DATE ( 2021, 28, 10 ) ;
#199 = APPROVAL ( #7, 'UNSPECIFIED' ) ;
#200 = CIRCLE ( 'NONE', #188, 1.199999999999999956 ) ;
#201 = EDGE_LOOP ( 'NONE', ( #90 ) ) ;
#202 = EDGE_CURVE ( 'NONE', #155, #155, #122, .T. ) ;
#203 = ORIENTED_EDGE ( 'NONE', *, *, #174, .T. ) ;
#204 = CYLINDRICAL_SURFACE ( 'NONE', #135, 0.8249999999999999556 ) ;
#205 = APPLICATION_PROTOCOL_DEFINITION ( 'international standard', 'config_control_design', 1994, #184 ) ;
#206 = AXIS2_PLACEMENT_3D ( 'NONE', #153, #136, #88 ) ;
#207 = DIRECTION ( 'NONE',  ( 0.0000000000000000000, 1.000000000000000000, 0.0000000000000000000 ) ) ;
#208 = ADVANCED_FACE ( 'NONE', ( #34, #103 ), #204, .T. ) ;
#209 = CC_DESIGN_DATE_AND_TIME_ASSIGNMENT ( #156, #160, ( #157 ) ) ;
#210 = CARTESIAN_POINT ( 'NONE',  ( 4.189777606611760026E-14, 0.8249999999999985123, 12.00000000000000000 ) ) ;
#211 = AXIS2_PLACEMENT_3D ( 'NONE', #31, #114, #42 ) ;
#212 = EDGE_LOOP ( 'NONE', ( #8 ) ) ;
#213 = APPROVAL_STATUS ( 'not_yet_approved' ) ;
#214 = PERSON_AND_ORGANIZATION_ROLE ( 'design_supplier' ) ;
#215 = APPROVAL_ROLE ( '' ) ;
#216 = EDGE_LOOP ( 'NONE', ( #137 ) ) ;
#217 = APPROVAL_PERSON_ORGANIZATION ( #189, #199, #192 ) ;
#218 = FACE_OUTER_BOUND ( 'NONE', #216, .T. ) ;
#219 = APPROVAL_DATE_TIME ( #9, #199 ) ;
#220 = CARTESIAN_POINT ( 'NONE',  ( 4.189777606611760026E-14, -1.475749820779635178E-15, 12.00000000000000000 ) ) ;
#221 = AXIS2_PLACEMENT_3D ( 'NONE', #118, #187, #207 ) ;
#222 = SECURITY_CLASSIFICATION ( '', '', #140 ) ;
#223 = APPROVAL ( #126, 'UNSPECIFIED' ) ;
ENDSEC;
END-ISO-10303-21;
