ISO-10303-21;
HEADER;
FILE_DESCRIPTION (( 'STEP AP203' ),
    '1' );
FILE_NAME ('962936.step',
    '2021-10-28T09:23:12',
    ( '' ),
    ( '' ),
    'SwSTEP 2.0',
    'SolidWorks 2019',
    '' );
FILE_SCHEMA (( 'CONFIG_CONTROL_DESIGN' ));
ENDSEC;

DATA;
#1 = SECURITY_CLASSIFICATION ( '', '', #5 ) ;
#2 = PRODUCT_DEFINITION_SHAPE ( 'NONE', 'NONE',  #73 ) ;
#3 = DATE_AND_TIME ( #206, #119 ) ;
#4 = DIRECTION ( 'NONE',  ( -3.491481338843133355E-15, 1.224646799147353207E-16, -1.000000000000000000 ) ) ;
#5 = SECURITY_CLASSIFICATION_LEVEL ( 'unclassified' ) ;
#6 = CC_DESIGN_APPROVAL ( #51, ( #1 ) ) ;
#7 = EDGE_CURVE ( 'NONE', #10, #10, #107, .T. ) ;
#8 = CARTESIAN_POINT ( 'NONE',  ( 1.326762908760390423E-13, 1.199999999999995293, 38.00000000000000000 ) ) ;
#9 = PRODUCT_RELATED_PRODUCT_CATEGORY ( 'detail', '', ( #163 ) ) ;
#10 = VERTEX_POINT ( 'NONE', #12 ) ;
#11 = ORIENTED_EDGE ( 'NONE', *, *, #162, .F. ) ;
#12 = CARTESIAN_POINT ( 'NONE',  ( 5.101904609128638573E-14, 1.499999999999996669, 14.61243556529820253 ) ) ;
#13 = EDGE_LOOP ( 'NONE', ( #81 ) ) ;
#14 = DIRECTION ( 'NONE',  ( 1.000000000000000000, 0.0000000000000000000, 0.0000000000000000000 ) ) ;
#15 = APPROVAL_STATUS ( 'not_yet_approved' ) ;
#16 = DATE_TIME_ROLE ( 'creation_date' ) ;
#17 = DIRECTION ( 'NONE',  ( 0.0000000000000000000, 1.000000000000000000, 0.0000000000000000000 ) ) ;
#18 = COORDINATED_UNIVERSAL_TIME_OFFSET ( 1, 0, .AHEAD. ) ;
#19 = CARTESIAN_POINT ( 'NONE',  ( 1.326762908760390423E-13, -4.653657836759941941E-15, 38.00000000000000000 ) ) ;
#20 = FACE_OUTER_BOUND ( 'NONE', #25, .T. ) ;
#21 = PERSON_AND_ORGANIZATION_ROLE ( 'design_owner' ) ;
#22 = APPROVAL_PERSON_ORGANIZATION ( #30, #38, #146 ) ;
#23 = DIRECTION ( 'NONE',  ( 4.293794133377662246E-31, 1.000000000000000000, 1.229791517316362731E-16 ) ) ;
#24 = DIRECTION ( 'NONE',  ( -3.491481338843133355E-15, 1.229791517316362731E-16, -1.000000000000000000 ) ) ;
#25 = EDGE_LOOP ( 'NONE', ( #192 ) ) ;
#26 = EDGE_LOOP ( 'NONE', ( #186 ) ) ;
#27 = CIRCLE ( 'NONE', #214, 0.8000000000000000444 ) ;
#28 = CC_DESIGN_SECURITY_CLASSIFICATION ( #1, ( #58 ) ) ;
#29 = EDGE_LOOP ( 'NONE', ( #177 ) ) ;
#30 = PERSON_AND_ORGANIZATION ( #116, #212 ) ;
#31 = AXIS2_PLACEMENT_3D ( 'NONE', #75, #137, #57 ) ;
#32 = CC_DESIGN_DATE_AND_TIME_ASSIGNMENT ( #70, #16, ( #73 ) ) ;
#33 = SHAPE_DEFINITION_REPRESENTATION ( #2, #208 ) ;
#34 = CARTESIAN_POINT ( 'NONE',  ( 5.101904609128638573E-14, -1.797024930553565845E-15, 14.61243556529820253 ) ) ;
#35 = AXIS2_PLACEMENT_3D ( 'NONE', #172, #82, #60 ) ;
#36 = DATE_AND_TIME ( #170, #136 ) ;
#37 = DIRECTION ( 'NONE',  ( 3.491481338843133355E-15, -1.229791517316362731E-16, 1.000000000000000000 ) ) ;
#38 = APPROVAL ( #15, 'UNSPECIFIED' ) ;
#39 = CC_DESIGN_APPROVAL ( #38, ( #58 ) ) ;
#40 = CALENDAR_DATE ( 2021, 28, 10 ) ;
#41 = CC_DESIGN_DATE_AND_TIME_ASSIGNMENT ( #36, #211, ( #1 ) ) ;
#42 = PERSON_AND_ORGANIZATION ( #116, #212 ) ;
#43 = MANIFOLD_SOLID_BREP ( 'Corps-Déplacer/Copier1[2]', #179 ) ;
#44 = CIRCLE ( 'NONE', #201, 0.8000000000000000444 ) ;
#45 = DIRECTION ( 'NONE',  ( -3.491481338843133355E-15, 1.224646799147353207E-16, -1.000000000000000000 ) ) ;
#46 = EDGE_LOOP ( 'NONE', ( #190 ) ) ;
#47 = DIRECTION ( 'NONE',  ( -4.275831445896958607E-31, -1.000000000000000000, -1.224646799147353207E-16 ) ) ;
#48 = ADVANCED_FACE ( 'NONE', ( #49, #126 ), #223, .T. ) ;
#49 = FACE_OUTER_BOUND ( 'NONE', #128, .T. ) ;
#50 = CALENDAR_DATE ( 2021, 28, 10 ) ;
#51 = APPROVAL ( #178, 'UNSPECIFIED' ) ;
#52 = AXIS2_PLACEMENT_3D ( 'NONE', #19, #91, #197 ) ;
#53 = APPROVAL_DATE_TIME ( #168, #38 ) ;
#54 = FACE_BOUND ( 'NONE', #160, .T. ) ;
#55 = CC_DESIGN_PERSON_AND_ORGANIZATION_ASSIGNMENT ( #209, #124, ( #58 ) ) ;
#56 = PLANE ( 'NONE',  #110 ) ;
#57 = DIRECTION ( 'NONE',  ( -4.275831445896958607E-31, -1.000000000000000000, -1.224646799147353207E-16 ) ) ;
#58 = PRODUCT_DEFINITION_FORMATION_WITH_SPECIFIED_SOURCE ( 'ANY', '', #163, .NOT_KNOWN. ) ;
#59 = FACE_OUTER_BOUND ( 'NONE', #207, .T. ) ;
#60 = DIRECTION ( 'NONE',  ( 0.0000000000000000000, 1.000000000000000000, 0.0000000000000000000 ) ) ;
#61 = AXIS2_PLACEMENT_3D ( 'NONE', #129, #45, #125 ) ;
#62 = FACE_OUTER_BOUND ( 'NONE', #46, .T. ) ;
#63 = APPROVAL_STATUS ( 'not_yet_approved' ) ;
#64 = ORIENTED_EDGE ( 'NONE', *, *, #155, .F. ) ;
#65 = AXIS2_PLACEMENT_3D ( 'NONE', #34, #37, #115 ) ;
#66 = LOCAL_TIME ( 11, 23, 12.00000000000000000, #156 ) ;
#67 = EDGE_LOOP ( 'NONE', ( #11 ) ) ;
#68 = APPROVAL_DATE_TIME ( #191, #100 ) ;
#69 = FACE_BOUND ( 'NONE', #26, .T. ) ;
#70 = DATE_AND_TIME ( #194, #161 ) ;
#71 = DIRECTION ( 'NONE',  ( -5.135813185032644414E-31, -1.000000000000000000, -1.445602896647343601E-16 ) ) ;
#72 = APPROVAL_PERSON_ORGANIZATION ( #42, #100, #199 ) ;
#73 = PRODUCT_DEFINITION ( 'UNKNOWN', '', #58, #203 ) ;
#74 = FACE_OUTER_BOUND ( 'NONE', #86, .T. ) ;
#75 = CARTESIAN_POINT ( 'NONE',  ( 4.189777606611760026E-14, 1.124819836996388690E-32, 12.00000000000000000 ) ) ;
#76 = CARTESIAN_POINT ( 'NONE',  ( 1.906192921252232855E-15, -6.686024735685322183E-17, 0.5459553513993090634 ) ) ;
#77 = AXIS2_PLACEMENT_3D ( 'NONE', #112, #180, #17 ) ;
#78 = CARTESIAN_POINT ( 'NONE',  ( 4.189777606611760026E-14, 0.7999999999999984901, 12.00000000000000000 ) ) ;
#79 = ADVANCED_FACE ( 'NONE', ( #133, #69 ), #204, .T. ) ;
#80 =( NAMED_UNIT ( * ) SI_UNIT ( $, .STERADIAN. ) SOLID_ANGLE_UNIT ( ) );
#81 = ORIENTED_EDGE ( 'NONE', *, *, #210, .T. ) ;
#82 = DIRECTION ( 'NONE',  ( -3.491481338843133355E-15, 1.229791517316362731E-16, -1.000000000000000000 ) ) ;
#83 = UNCERTAINTY_MEASURE_WITH_UNIT (LENGTH_MEASURE( 1.000000000000000082E-05 ), #185, 'distance_accuracy_value', 'NONE');
#84 = CARTESIAN_POINT ( 'NONE',  ( 1.016636224667860152E-15, -0.8000000000000000444, 0.2911761874129655259 ) ) ;
#85 = CARTESIAN_POINT ( 'NONE',  ( 1.316288464743861212E-13, -4.616918432785521081E-15, 37.69999999999999574 ) ) ;
#86 = EDGE_LOOP ( 'NONE', ( #157 ) ) ;
#87 = ORIENTED_EDGE ( 'NONE', *, *, #7, .F. ) ;
#88 = CIRCLE ( 'NONE', #198, 1.499999999999999778 ) ;
#89 = AXIS2_PLACEMENT_3D ( 'NONE', #95, #4, #181 ) ;
#90 = PERSON_AND_ORGANIZATION ( #116, #212 ) ;
#91 = DIRECTION ( 'NONE',  ( -3.491481338843133355E-15, 1.224646799147353207E-16, -1.000000000000000000 ) ) ;
#92 = FACE_OUTER_BOUND ( 'NONE', #29, .T. ) ;
#93 = COORDINATED_UNIVERSAL_TIME_OFFSET ( 1, 0, .AHEAD. ) ;
#94 = CONICAL_SURFACE ( 'NONE', #164, 1.499999999999995559, 1.221730476396026388 ) ;
#95 = CARTESIAN_POINT ( 'NONE',  ( 1.326762908760390423E-13, 8.998558695971077224E-33, 38.00000000000000000 ) ) ;
#96 = ADVANCED_FACE ( 'NONE', ( #74 ), #114, .T. ) ;
#97 = DIRECTION ( 'NONE',  ( 0.0000000000000000000, 0.0000000000000000000, 1.000000000000000000 ) ) ;
#98 = CARTESIAN_POINT ( 'NONE',  ( 1.316288464743861212E-13, 1.499999999999995337, 37.69999999999999574 ) ) ;
#99 = DIRECTION ( 'NONE',  ( 0.0000000000000000000, 1.000000000000000000, 0.0000000000000000000 ) ) ;
#100 = APPROVAL ( #63, 'UNSPECIFIED' ) ;
#101 = DIRECTION ( 'NONE',  ( 0.0000000000000000000, 1.000000000000000000, 0.0000000000000000000 ) ) ;
#102 = CC_DESIGN_APPROVAL ( #100, ( #73 ) ) ;
#103 = EDGE_LOOP ( 'NONE', ( #147 ) ) ;
#104 = PERSON_AND_ORGANIZATION_ROLE ( 'classification_officer' ) ;
#105 = ADVANCED_FACE ( 'NONE', ( #54, #20 ), #215, .T. ) ;
#106 = APPROVAL_DATE_TIME ( #3, #51 ) ;
#107 = CIRCLE ( 'NONE', #140, 1.499999999999998446 ) ;
#108 = LOCAL_TIME ( 11, 23, 12.00000000000000000, #221 ) ;
#109 = CC_DESIGN_PERSON_AND_ORGANIZATION_ASSIGNMENT ( #132, #104, ( #1 ) ) ;
#110 = AXIS2_PLACEMENT_3D ( 'NONE', #135, #202, #47 ) ;
#111 = AXIS2_PLACEMENT_3D ( 'NONE', #117, #175, #23 ) ;
#112 = CARTESIAN_POINT ( 'NONE',  ( 1.326762908760390423E-13, -4.653657836759941941E-15, 38.00000000000000000 ) ) ;
#113 = APPROVAL_ROLE ( '' ) ;
#114 = PLANE ( 'NONE',  #31 ) ;
#115 = DIRECTION ( 'NONE',  ( 0.0000000000000000000, -1.000000000000000000, 0.0000000000000000000 ) ) ;
#116 = PERSON ( 'UNSPECIFIED', 'UNSPECIFIED', 'UNSPECIFIED', ('UNSPECIFIED'), ('UNSPECIFIED'), ('UNSPECIFIED') ) ;
#117 = CARTESIAN_POINT ( 'NONE',  ( 0.0000000000000000000, 0.0000000000000000000, 0.0000000000000000000 ) ) ;
#118 =( NAMED_UNIT ( * ) PLANE_ANGLE_UNIT ( ) SI_UNIT ( $, .RADIAN. ) );
#119 = LOCAL_TIME ( 11, 23, 12.00000000000000000, #150 ) ;
#120 = DIRECTION ( 'NONE',  ( -3.491481338843133355E-15, 1.224646799147353207E-16, -1.000000000000000000 ) ) ;
#121 = VERTEX_POINT ( 'NONE', #84 ) ;
#122 = VERTEX_POINT ( 'NONE', #8 ) ;
#123 = CIRCLE ( 'NONE', #77, 1.199999999999999956 ) ;
#124 = PERSON_AND_ORGANIZATION_ROLE ( 'design_supplier' ) ;
#125 = DIRECTION ( 'NONE',  ( 4.275831445896958607E-31, 1.000000000000000000, 1.224646799147353207E-16 ) ) ;
#126 = FACE_OUTER_BOUND ( 'NONE', #142, .T. ) ;
#127 = ADVANCED_FACE ( 'NONE', ( #92 ), #169, .F. ) ;
#128 = EDGE_LOOP ( 'NONE', ( #87 ) ) ;
#129 = CARTESIAN_POINT ( 'NONE',  ( 0.0000000000000000000, 0.0000000000000000000, 0.0000000000000000000 ) ) ;
#130 = MANIFOLD_SOLID_BREP ( 'Corps-Déplacer/Copier1[1]', #165 ) ;
#131 = CC_DESIGN_PERSON_AND_ORGANIZATION_ASSIGNMENT ( #200, #21, ( #163 ) ) ;
#132 = PERSON_AND_ORGANIZATION ( #116, #212 ) ;
#133 = FACE_OUTER_BOUND ( 'NONE', #67, .T. ) ;
#134 = PERSON_AND_ORGANIZATION ( #116, #212 ) ;
#135 = CARTESIAN_POINT ( 'NONE',  ( 4.189777606611760026E-14, 1.124819836996388690E-32, 12.00000000000000000 ) ) ;
#136 = LOCAL_TIME ( 11, 23, 12.00000000000000000, #18 ) ;
#137 = DIRECTION ( 'NONE',  ( 3.491481338843133355E-15, -1.224646799147353207E-16, 1.000000000000000000 ) ) ;
#138 = CYLINDRICAL_SURFACE ( 'NONE', #111, 0.8000000000000000444 ) ;
#139 = ADVANCED_FACE ( 'NONE', ( #59 ), #94, .T. ) ;
#140 = AXIS2_PLACEMENT_3D ( 'NONE', #220, #145, #205 ) ;
#141 = CARTESIAN_POINT ( 'NONE',  ( 0.0000000000000000000, 0.0000000000000000000, 0.0000000000000000000 ) ) ;
#142 = EDGE_LOOP ( 'NONE', ( #184 ) ) ;
#143 = EDGE_CURVE ( 'NONE', #121, #121, #27, .T. ) ;
#144 = CIRCLE ( 'NONE', #35, 0.8000000000000000444 ) ;
#145 = DIRECTION ( 'NONE',  ( -3.491481338843133355E-15, 1.229791517316362731E-16, -1.000000000000000000 ) ) ;
#146 = APPROVAL_ROLE ( '' ) ;
#147 = ORIENTED_EDGE ( 'NONE', *, *, #155, .T. ) ;
#148 = CC_DESIGN_PERSON_AND_ORGANIZATION_ASSIGNMENT ( #189, #196, ( #58 ) ) ;
#149 = EDGE_CURVE ( 'NONE', #122, #122, #123, .T. ) ;
#150 = COORDINATED_UNIVERSAL_TIME_OFFSET ( 1, 0, .AHEAD. ) ;
#151 = CARTESIAN_POINT ( 'NONE',  ( 1.016636224667860350E-15, -3.565879859032181733E-17, 0.2911761874129656369 ) ) ;
#152 = ADVANCED_FACE ( 'NONE', ( #167 ), #56, .F. ) ;
#153 = DIRECTION ( 'NONE',  ( -3.491481338843133355E-15, 1.224646799147353207E-16, -1.000000000000000000 ) ) ;
#154 = VERTEX_POINT ( 'NONE', #98 ) ;
#155 = EDGE_CURVE ( 'NONE', #174, #174, #144, .T. ) ;
#156 = COORDINATED_UNIVERSAL_TIME_OFFSET ( 1, 0, .AHEAD. ) ;
#157 = ORIENTED_EDGE ( 'NONE', *, *, #210, .F. ) ;
#158 = APPLICATION_CONTEXT ( 'configuration controlled 3d designs of mechanical parts and assemblies' ) ;
#159 = MECHANICAL_CONTEXT ( 'NONE', #188, 'mechanical' ) ;
#160 = EDGE_LOOP ( 'NONE', ( #64 ) ) ;
#161 = LOCAL_TIME ( 11, 23, 12.00000000000000000, #93 ) ;
#162 = EDGE_CURVE ( 'NONE', #154, #154, #88, .T. ) ;
#163 = PRODUCT ( '962936', '962936', '', ( #159 ) ) ;
#164 = AXIS2_PLACEMENT_3D ( 'NONE', #76, #171, #71 ) ;
#165 = CLOSED_SHELL ( 'NONE', ( #48, #79, #127, #105, #152 ) ) ;
#166 =( GEOMETRIC_REPRESENTATION_CONTEXT ( 3 ) GLOBAL_UNCERTAINTY_ASSIGNED_CONTEXT ( ( #83 ) ) GLOBAL_UNIT_ASSIGNED_CONTEXT ( ( #185, #118, #80 ) ) REPRESENTATION_CONTEXT ( 'NONE', 'WORKASPACE' ) );
#167 = FACE_OUTER_BOUND ( 'NONE', #103, .T. ) ;
#168 = DATE_AND_TIME ( #50, #108 ) ;
#169 = PLANE ( 'NONE',  #89 ) ;
#170 = CALENDAR_DATE ( 2021, 28, 10 ) ;
#171 = DIRECTION ( 'NONE',  ( 3.491481338843133355E-15, -1.224646799147353207E-16, 1.000000000000000000 ) ) ;
#172 = CARTESIAN_POINT ( 'NONE',  ( 4.189777606611760026E-14, -1.475749820779635178E-15, 12.00000000000000000 ) ) ;
#173 = FACE_OUTER_BOUND ( 'NONE', #13, .T. ) ;
#174 = VERTEX_POINT ( 'NONE', #78 ) ;
#175 = DIRECTION ( 'NONE',  ( -3.491481338843133355E-15, 1.229791517316362731E-16, -1.000000000000000000 ) ) ;
#176 = APPROVAL_PERSON_ORGANIZATION ( #134, #51, #113 ) ;
#177 = ORIENTED_EDGE ( 'NONE', *, *, #149, .F. ) ;
#178 = APPROVAL_STATUS ( 'not_yet_approved' ) ;
#179 = CLOSED_SHELL ( 'NONE', ( #96, #183, #139 ) ) ;
#180 = DIRECTION ( 'NONE',  ( -3.491481338843133355E-15, 1.224646799147353207E-16, -1.000000000000000000 ) ) ;
#181 = DIRECTION ( 'NONE',  ( 4.275831445896958607E-31, 1.000000000000000000, 1.224646799147353207E-16 ) ) ;
#182 = CARTESIAN_POINT ( 'NONE',  ( 4.189777606611760026E-14, 0.7999999999999984901, 12.00000000000000000 ) ) ;
#183 = ADVANCED_FACE ( 'NONE', ( #173, #62 ), #138, .T. ) ;
#184 = ORIENTED_EDGE ( 'NONE', *, *, #162, .T. ) ;
#185 =( LENGTH_UNIT ( ) NAMED_UNIT ( * ) SI_UNIT ( .MILLI., .METRE. ) );
#186 = ORIENTED_EDGE ( 'NONE', *, *, #149, .T. ) ;
#187 = VERTEX_POINT ( 'NONE', #182 ) ;
#188 = APPLICATION_CONTEXT ( 'configuration controlled 3d designs of mechanical parts and assemblies' ) ;
#189 = PERSON_AND_ORGANIZATION ( #116, #212 ) ;
#190 = ORIENTED_EDGE ( 'NONE', *, *, #143, .F. ) ;
#191 = DATE_AND_TIME ( #40, #66 ) ;
#192 = ORIENTED_EDGE ( 'NONE', *, *, #7, .T. ) ;
#193 = CC_DESIGN_PERSON_AND_ORGANIZATION_ASSIGNMENT ( #90, #195, ( #73 ) ) ;
#194 = CALENDAR_DATE ( 2021, 28, 10 ) ;
#195 = PERSON_AND_ORGANIZATION_ROLE ( 'creator' ) ;
#196 = PERSON_AND_ORGANIZATION_ROLE ( 'creator' ) ;
#197 = DIRECTION ( 'NONE',  ( 0.0000000000000000000, 1.000000000000000000, 0.0000000000000000000 ) ) ;
#198 = AXIS2_PLACEMENT_3D ( 'NONE', #85, #120, #101 ) ;
#199 = APPROVAL_ROLE ( '' ) ;
#200 = PERSON_AND_ORGANIZATION ( #116, #212 ) ;
#201 = AXIS2_PLACEMENT_3D ( 'NONE', #218, #24, #99 ) ;
#202 = DIRECTION ( 'NONE',  ( 3.491481338843133355E-15, -1.224646799147353207E-16, 1.000000000000000000 ) ) ;
#203 = DESIGN_CONTEXT ( 'detailed design', #158, 'design' ) ;
#204 = CONICAL_SURFACE ( 'NONE', #52, 1.199999999999999956, 0.7853981633974453924 ) ;
#205 = DIRECTION ( 'NONE',  ( 0.0000000000000000000, 1.000000000000000000, 0.0000000000000000000 ) ) ;
#206 = CALENDAR_DATE ( 2021, 28, 10 ) ;
#207 = EDGE_LOOP ( 'NONE', ( #222 ) ) ;
#208 = ADVANCED_BREP_SHAPE_REPRESENTATION ( '962936', ( #130, #43, #217 ), #166 ) ;
#209 = PERSON_AND_ORGANIZATION ( #116, #212 ) ;
#210 = EDGE_CURVE ( 'NONE', #187, #187, #44, .T. ) ;
#211 = DATE_TIME_ROLE ( 'classification_date' ) ;
#212 = ORGANIZATION ( 'UNSPECIFIED', 'UNSPECIFIED', '' ) ;
#213 = DIRECTION ( 'NONE',  ( -4.814824860968089633E-31, -1.000000000000000000, -1.355252715606880543E-16 ) ) ;
#214 = AXIS2_PLACEMENT_3D ( 'NONE', #151, #153, #213 ) ;
#215 = CONICAL_SURFACE ( 'NONE', #65, 1.499999999999998446, 0.2617993877991500740 ) ;
#216 = APPLICATION_PROTOCOL_DEFINITION ( 'international standard', 'config_control_design', 1994, #188 ) ;
#217 = AXIS2_PLACEMENT_3D ( 'NONE', #141, #97, #14 ) ;
#218 = CARTESIAN_POINT ( 'NONE',  ( 4.189777606611760026E-14, -1.475749820779635178E-15, 12.00000000000000000 ) ) ;
#219 = APPLICATION_PROTOCOL_DEFINITION ( 'international standard', 'config_control_design', 1994, #158 ) ;
#220 = CARTESIAN_POINT ( 'NONE',  ( 5.101904609128638573E-14, -1.797024930553565845E-15, 14.61243556529820253 ) ) ;
#221 = COORDINATED_UNIVERSAL_TIME_OFFSET ( 1, 0, .AHEAD. ) ;
#222 = ORIENTED_EDGE ( 'NONE', *, *, #143, .T. ) ;
#223 = CYLINDRICAL_SURFACE ( 'NONE', #61, 1.499999999999998224 ) ;
ENDSEC;
END-ISO-10303-21;
