ISO-10303-21;
HEADER;
FILE_DESCRIPTION (( 'STEP AP203' ),
    '1' );
FILE_NAME ('962935.step',
    '2021-10-28T09:23:11',
    ( '' ),
    ( '' ),
    'SwSTEP 2.0',
    'SolidWorks 2019',
    '' );
FILE_SCHEMA (( 'CONFIG_CONTROL_DESIGN' ));
ENDSEC;

DATA;
#1 = AXIS2_PLACEMENT_3D ( 'NONE', #20, #150, #51 ) ;
#2 = CC_DESIGN_DATE_AND_TIME_ASSIGNMENT ( #72, #141, ( #88 ) ) ;
#3 = LOCAL_TIME ( 11, 23, 11.00000000000000000, #160 ) ;
#4 = DIRECTION ( 'NONE',  ( 0.0000000000000000000, 1.000000000000000000, 0.0000000000000000000 ) ) ;
#5 = CARTESIAN_POINT ( 'NONE',  ( 1.326762908760390423E-13, -4.653657836759941941E-15, 38.00000000000000000 ) ) ;
#6 = CALENDAR_DATE ( 2021, 28, 10 ) ;
#7 = ORIENTED_EDGE ( 'NONE', *, *, #119, .F. ) ;
#8 = CC_DESIGN_PERSON_AND_ORGANIZATION_ASSIGNMENT ( #162, #200, ( #167 ) ) ;
#9 = CIRCLE ( 'NONE', #122, 1.499999999999999778 ) ;
#10 = EDGE_LOOP ( 'NONE', ( #103 ) ) ;
#11 = COORDINATED_UNIVERSAL_TIME_OFFSET ( 1, 0, .AHEAD. ) ;
#12 = CC_DESIGN_PERSON_AND_ORGANIZATION_ASSIGNMENT ( #197, #95, ( #88 ) ) ;
#13 = VERTEX_POINT ( 'NONE', #203 ) ;
#14 = CIRCLE ( 'NONE', #59, 1.199999999999999956 ) ;
#15 = CARTESIAN_POINT ( 'NONE',  ( 1.326762908760390423E-13, 8.998558695971077224E-33, 38.00000000000000000 ) ) ;
#16 = AXIS2_PLACEMENT_3D ( 'NONE', #76, #22, #65 ) ;
#17 = AXIS2_PLACEMENT_3D ( 'NONE', #94, #131, #60 ) ;
#18 = AXIS2_PLACEMENT_3D ( 'NONE', #66, #137, #115 ) ;
#19 = CC_DESIGN_APPROVAL ( #110, ( #88 ) ) ;
#20 = CARTESIAN_POINT ( 'NONE',  ( 4.189777606611760026E-14, 1.124819836996388690E-32, 12.00000000000000000 ) ) ;
#21 = CARTESIAN_POINT ( 'NONE',  ( 0.0000000000000000000, 0.0000000000000000000, 0.0000000000000000000 ) ) ;
#22 = DIRECTION ( 'NONE',  ( -3.491481338843133355E-15, 1.224646799147353207E-16, -1.000000000000000000 ) ) ;
#23 = PRODUCT_RELATED_PRODUCT_CATEGORY ( 'detail', '', ( #54 ) ) ;
#24 = PERSON_AND_ORGANIZATION ( #113, #152 ) ;
#25 = ORIENTED_EDGE ( 'NONE', *, *, #64, .F. ) ;
#26 = DATE_AND_TIME ( #6, #127 ) ;
#27 = EDGE_LOOP ( 'NONE', ( #199 ) ) ;
#28 = COORDINATED_UNIVERSAL_TIME_OFFSET ( 1, 0, .AHEAD. ) ;
#29 = CARTESIAN_POINT ( 'NONE',  ( 9.848663426469892761E-16, -0.7750000000000000222, 0.2820769315563103619 ) ) ;
#30 = DIRECTION ( 'NONE',  ( 0.0000000000000000000, -1.000000000000000000, 0.0000000000000000000 ) ) ;
#31 = CONICAL_SURFACE ( 'NONE', #151, 1.499999999999995559, 1.221730476396026388 ) ;
#32 = CARTESIAN_POINT ( 'NONE',  ( 1.906192921252232855E-15, -6.686024735685322183E-17, 0.5459553513993090634 ) ) ;
#33 = FACE_OUTER_BOUND ( 'NONE', #124, .T. ) ;
#34 = FACE_OUTER_BOUND ( 'NONE', #198, .T. ) ;
#35 = CARTESIAN_POINT ( 'NONE',  ( 4.189777606611760026E-14, 0.7749999999999984679, 12.00000000000000000 ) ) ;
#36 = AXIS2_PLACEMENT_3D ( 'NONE', #116, #148, #30 ) ;
#37 = CC_DESIGN_PERSON_AND_ORGANIZATION_ASSIGNMENT ( #123, #48, ( #167 ) ) ;
#38 = EDGE_LOOP ( 'NONE', ( #220 ) ) ;
#39 = PLANE ( 'NONE',  #195 ) ;
#40 = EDGE_LOOP ( 'NONE', ( #7 ) ) ;
#41 = ORIENTED_EDGE ( 'NONE', *, *, #112, .F. ) ;
#42 = CALENDAR_DATE ( 2021, 28, 10 ) ;
#43 = CIRCLE ( 'NONE', #204, 0.7750000000000000222 ) ;
#44 = EDGE_LOOP ( 'NONE', ( #140 ) ) ;
#45 =( GEOMETRIC_REPRESENTATION_CONTEXT ( 3 ) GLOBAL_UNCERTAINTY_ASSIGNED_CONTEXT ( ( #98 ) ) GLOBAL_UNIT_ASSIGNED_CONTEXT ( ( #172, #211, #101 ) ) REPRESENTATION_CONTEXT ( 'NONE', 'WORKASPACE' ) );
#46 = VERTEX_POINT ( 'NONE', #29 ) ;
#47 = VERTEX_POINT ( 'NONE', #190 ) ;
#48 = PERSON_AND_ORGANIZATION_ROLE ( 'creator' ) ;
#49 = ADVANCED_FACE ( 'NONE', ( #194 ), #39, .F. ) ;
#50 = CONICAL_SURFACE ( 'NONE', #16, 1.199999999999999956, 0.7853981633974453924 ) ;
#51 = DIRECTION ( 'NONE',  ( -4.275831445896958607E-31, -1.000000000000000000, -1.224646799147353207E-16 ) ) ;
#52 = CC_DESIGN_PERSON_AND_ORGANIZATION_ASSIGNMENT ( #173, #121, ( #54 ) ) ;
#53 = PLANE ( 'NONE',  #1 ) ;
#54 = PRODUCT ( '962935', '962935', '', ( #192 ) ) ;
#55 = APPROVAL_PERSON_ORGANIZATION ( #216, #93, #61 ) ;
#56 = APPLICATION_PROTOCOL_DEFINITION ( 'international standard', 'config_control_design', 1994, #209 ) ;
#57 = APPROVAL_DATE_TIME ( #219, #110 ) ;
#58 = DATE_AND_TIME ( #106, #217 ) ;
#59 = AXIS2_PLACEMENT_3D ( 'NONE', #5, #133, #206 ) ;
#60 = DIRECTION ( 'NONE',  ( 0.0000000000000000000, 1.000000000000000000, 0.0000000000000000000 ) ) ;
#61 = APPROVAL_ROLE ( '' ) ;
#62 = DIRECTION ( 'NONE',  ( 0.0000000000000000000, 1.000000000000000000, 0.0000000000000000000 ) ) ;
#63 = AXIS2_PLACEMENT_3D ( 'NONE', #208, #186, #77 ) ;
#64 = EDGE_CURVE ( 'NONE', #46, #46, #43, .T. ) ;
#65 = DIRECTION ( 'NONE',  ( 0.0000000000000000000, 1.000000000000000000, 0.0000000000000000000 ) ) ;
#66 = CARTESIAN_POINT ( 'NONE',  ( 0.0000000000000000000, 0.0000000000000000000, 0.0000000000000000000 ) ) ;
#67 = VERTEX_POINT ( 'NONE', #214 ) ;
#68 = CARTESIAN_POINT ( 'NONE',  ( 0.0000000000000000000, 0.0000000000000000000, 0.0000000000000000000 ) ) ;
#69 = CONICAL_SURFACE ( 'NONE', #36, 1.499999999999998446, 0.2617993877991500740 ) ;
#70 = MANIFOLD_SOLID_BREP ( 'Corps-Déplacer/Copier1[1]', #78 ) ;
#71 = CC_DESIGN_DATE_AND_TIME_ASSIGNMENT ( #58, #218, ( #154 ) ) ;
#72 = DATE_AND_TIME ( #42, #3 ) ;
#73 = CALENDAR_DATE ( 2021, 28, 10 ) ;
#74 = FACE_OUTER_BOUND ( 'NONE', #174, .T. ) ;
#75 = AXIS2_PLACEMENT_3D ( 'NONE', #68, #178, #193 ) ;
#76 = CARTESIAN_POINT ( 'NONE',  ( 1.326762908760390423E-13, -4.653657836759941941E-15, 38.00000000000000000 ) ) ;
#77 = DIRECTION ( 'NONE',  ( 0.0000000000000000000, 1.000000000000000000, 0.0000000000000000000 ) ) ;
#78 = CLOSED_SHELL ( 'NONE', ( #83, #144, #207, #176, #49 ) ) ;
#79 = DIRECTION ( 'NONE',  ( 4.275831445896958607E-31, 1.000000000000000000, 1.224646799147353207E-16 ) ) ;
#80 = LOCAL_TIME ( 11, 23, 11.00000000000000000, #90 ) ;
#81 = VERTEX_POINT ( 'NONE', #175 ) ;
#82 = APPROVAL_STATUS ( 'not_yet_approved' ) ;
#83 = ADVANCED_FACE ( 'NONE', ( #165, #142 ), #109, .T. ) ;
#84 = EDGE_LOOP ( 'NONE', ( #180 ) ) ;
#85 = PERSON_AND_ORGANIZATION ( #113, #152 ) ;
#86 = CC_DESIGN_PERSON_AND_ORGANIZATION_ASSIGNMENT ( #85, #139, ( #154 ) ) ;
#87 = APPROVAL_STATUS ( 'not_yet_approved' ) ;
#88 = SECURITY_CLASSIFICATION ( '', '', #129 ) ;
#89 = EDGE_LOOP ( 'NONE', ( #107 ) ) ;
#90 = COORDINATED_UNIVERSAL_TIME_OFFSET ( 1, 0, .AHEAD. ) ;
#91 = DIRECTION ( 'NONE',  ( -5.135813185032644414E-31, -1.000000000000000000, -1.445602896647343601E-16 ) ) ;
#92 = AXIS2_PLACEMENT_3D ( 'NONE', #21, #222, #181 ) ;
#93 = APPROVAL ( #87, 'UNSPECIFIED' ) ;
#94 = CARTESIAN_POINT ( 'NONE',  ( 4.189777606611760026E-14, -1.475749820779635178E-15, 12.00000000000000000 ) ) ;
#95 = PERSON_AND_ORGANIZATION_ROLE ( 'classification_officer' ) ;
#96 = AXIS2_PLACEMENT_3D ( 'NONE', #153, #171, #4 ) ;
#97 = DIRECTION ( 'NONE',  ( -3.491481338843133355E-15, 1.224646799147353207E-16, -1.000000000000000000 ) ) ;
#98 = UNCERTAINTY_MEASURE_WITH_UNIT (LENGTH_MEASURE( 1.000000000000000082E-05 ), #172, 'distance_accuracy_value', 'NONE');
#99 = FACE_OUTER_BOUND ( 'NONE', #44, .T. ) ;
#100 = DIRECTION ( 'NONE',  ( -3.491481338843133355E-15, 1.224646799147353207E-16, -1.000000000000000000 ) ) ;
#101 =( NAMED_UNIT ( * ) SI_UNIT ( $, .STERADIAN. ) SOLID_ANGLE_UNIT ( ) );
#102 = APPROVAL ( #82, 'UNSPECIFIED' ) ;
#103 = ORIENTED_EDGE ( 'NONE', *, *, #189, .T. ) ;
#104 = CARTESIAN_POINT ( 'NONE',  ( 4.189777606611760026E-14, 1.124819836996388690E-32, 12.00000000000000000 ) ) ;
#105 = ADVANCED_FACE ( 'NONE', ( #99 ), #31, .T. ) ;
#106 = CALENDAR_DATE ( 2021, 28, 10 ) ;
#107 = ORIENTED_EDGE ( 'NONE', *, *, #189, .F. ) ;
#108 = APPROVAL_ROLE ( '' ) ;
#109 = CYLINDRICAL_SURFACE ( 'NONE', #92, 1.499999999999998224 ) ;
#110 = APPROVAL ( #179, 'UNSPECIFIED' ) ;
#111 = PERSON_AND_ORGANIZATION ( #113, #152 ) ;
#112 = EDGE_CURVE ( 'NONE', #13, #13, #9, .T. ) ;
#113 = PERSON ( 'UNSPECIFIED', 'UNSPECIFIED', 'UNSPECIFIED', ('UNSPECIFIED'), ('UNSPECIFIED'), ('UNSPECIFIED') ) ;
#114 = FACE_OUTER_BOUND ( 'NONE', #38, .T. ) ;
#115 = DIRECTION ( 'NONE',  ( 4.293794133377662246E-31, 1.000000000000000000, 1.229791517316362731E-16 ) ) ;
#116 = CARTESIAN_POINT ( 'NONE',  ( 5.134480573504241446E-14, -1.808499041616920582E-15, 14.70573683548742494 ) ) ;
#117 = APPROVAL_ROLE ( '' ) ;
#118 = APPROVAL_PERSON_ORGANIZATION ( #111, #110, #108 ) ;
#119 = EDGE_CURVE ( 'NONE', #47, #47, #159, .T. ) ;
#120 = APPLICATION_PROTOCOL_DEFINITION ( 'international standard', 'config_control_design', 1994, #183 ) ;
#121 = PERSON_AND_ORGANIZATION_ROLE ( 'design_owner' ) ;
#122 = AXIS2_PLACEMENT_3D ( 'NONE', #143, #97, #62 ) ;
#123 = PERSON_AND_ORGANIZATION ( #113, #152 ) ;
#124 = EDGE_LOOP ( 'NONE', ( #125 ) ) ;
#125 = ORIENTED_EDGE ( 'NONE', *, *, #135, .T. ) ;
#126 = APPROVAL_DATE_TIME ( #164, #93 ) ;
#127 = LOCAL_TIME ( 11, 23, 11.00000000000000000, #155 ) ;
#128 = FACE_BOUND ( 'NONE', #10, .T. ) ;
#129 = SECURITY_CLASSIFICATION_LEVEL ( 'unclassified' ) ;
#130 = ADVANCED_FACE ( 'NONE', ( #168 ), #53, .T. ) ;
#131 = DIRECTION ( 'NONE',  ( -3.491481338843133355E-15, 1.229791517316362731E-16, -1.000000000000000000 ) ) ;
#132 = DESIGN_CONTEXT ( 'detailed design', #209, 'design' ) ;
#133 = DIRECTION ( 'NONE',  ( -3.491481338843133355E-15, 1.224646799147353207E-16, -1.000000000000000000 ) ) ;
#134 = CLOSED_SHELL ( 'NONE', ( #130, #169, #105 ) ) ;
#135 = EDGE_CURVE ( 'NONE', #81, #81, #146, .T. ) ;
#136 = AXIS2_PLACEMENT_3D ( 'NONE', #15, #100, #79 ) ;
#137 = DIRECTION ( 'NONE',  ( -3.491481338843133355E-15, 1.229791517316362731E-16, -1.000000000000000000 ) ) ;
#138 = APPROVAL_DATE_TIME ( #26, #102 ) ;
#139 = PERSON_AND_ORGANIZATION_ROLE ( 'creator' ) ;
#140 = ORIENTED_EDGE ( 'NONE', *, *, #64, .T. ) ;
#141 = DATE_TIME_ROLE ( 'classification_date' ) ;
#142 = FACE_OUTER_BOUND ( 'NONE', #161, .T. ) ;
#143 = CARTESIAN_POINT ( 'NONE',  ( 1.316288464743861212E-13, -4.616918432785521081E-15, 37.69999999999999574 ) ) ;
#144 = ADVANCED_FACE ( 'NONE', ( #74, #128 ), #50, .T. ) ;
#145 = MANIFOLD_SOLID_BREP ( 'Corps-Déplacer/Copier1[2]', #134 ) ;
#146 = CIRCLE ( 'NONE', #96, 1.499999999999998446 ) ;
#147 = CC_DESIGN_APPROVAL ( #102, ( #154 ) ) ;
#148 = DIRECTION ( 'NONE',  ( 3.491481338843133355E-15, -1.229791517316362731E-16, 1.000000000000000000 ) ) ;
#149 = EDGE_CURVE ( 'NONE', #212, #212, #215, .T. ) ;
#150 = DIRECTION ( 'NONE',  ( 3.491481338843133355E-15, -1.224646799147353207E-16, 1.000000000000000000 ) ) ;
#151 = AXIS2_PLACEMENT_3D ( 'NONE', #32, #205, #91 ) ;
#152 = ORGANIZATION ( 'UNSPECIFIED', 'UNSPECIFIED', '' ) ;
#153 = CARTESIAN_POINT ( 'NONE',  ( 5.134480573504241446E-14, -1.808499041616920582E-15, 14.70573683548742494 ) ) ;
#154 = PRODUCT_DEFINITION ( 'UNKNOWN', '', #167, #132 ) ;
#155 = COORDINATED_UNIVERSAL_TIME_OFFSET ( 1, 0, .AHEAD. ) ;
#156 = CC_DESIGN_SECURITY_CLASSIFICATION ( #88, ( #167 ) ) ;
#157 = DIRECTION ( 'NONE',  ( -4.275831445896958607E-31, -1.000000000000000000, -1.224646799147353207E-16 ) ) ;
#158 = ADVANCED_BREP_SHAPE_REPRESENTATION ( '962935', ( #70, #145, #75 ), #45 ) ;
#159 = CIRCLE ( 'NONE', #63, 0.7750000000000000222 ) ;
#160 = COORDINATED_UNIVERSAL_TIME_OFFSET ( 1, 0, .AHEAD. ) ;
#161 = EDGE_LOOP ( 'NONE', ( #163 ) ) ;
#162 = PERSON_AND_ORGANIZATION ( #113, #152 ) ;
#163 = ORIENTED_EDGE ( 'NONE', *, *, #112, .T. ) ;
#164 = DATE_AND_TIME ( #73, #80 ) ;
#165 = FACE_OUTER_BOUND ( 'NONE', #27, .T. ) ;
#166 = DIRECTION ( 'NONE',  ( -4.970141791967060012E-31, -1.000000000000000000, -1.398970545142586295E-16 ) ) ;
#167 = PRODUCT_DEFINITION_FORMATION_WITH_SPECIFIED_SOURCE ( 'ANY', '', #54, .NOT_KNOWN. ) ;
#168 = FACE_OUTER_BOUND ( 'NONE', #196, .T. ) ;
#169 = ADVANCED_FACE ( 'NONE', ( #114, #34 ), #202, .T. ) ;
#170 = CARTESIAN_POINT ( 'NONE',  ( 9.848663426469896705E-16, -3.454446113437426034E-17, 0.2820769315563104729 ) ) ;
#171 = DIRECTION ( 'NONE',  ( -3.491481338843133355E-15, 1.229791517316362731E-16, -1.000000000000000000 ) ) ;
#172 =( LENGTH_UNIT ( ) NAMED_UNIT ( * ) SI_UNIT ( .MILLI., .METRE. ) );
#173 = PERSON_AND_ORGANIZATION ( #113, #152 ) ;
#174 = EDGE_LOOP ( 'NONE', ( #41 ) ) ;
#175 = CARTESIAN_POINT ( 'NONE',  ( 5.134480573504241446E-14, 1.499999999999996669, 14.70573683548742494 ) ) ;
#176 = ADVANCED_FACE ( 'NONE', ( #182, #33 ), #69, .T. ) ;
#177 = DIRECTION ( 'NONE',  ( 3.491481338843133355E-15, -1.224646799147353207E-16, 1.000000000000000000 ) ) ;
#178 = DIRECTION ( 'NONE',  ( 0.0000000000000000000, 0.0000000000000000000, 1.000000000000000000 ) ) ;
#179 = APPROVAL_STATUS ( 'not_yet_approved' ) ;
#180 = ORIENTED_EDGE ( 'NONE', *, *, #119, .T. ) ;
#181 = DIRECTION ( 'NONE',  ( 4.275831445896958607E-31, 1.000000000000000000, 1.224646799147353207E-16 ) ) ;
#182 = FACE_BOUND ( 'NONE', #40, .T. ) ;
#183 = APPLICATION_CONTEXT ( 'configuration controlled 3d designs of mechanical parts and assemblies' ) ;
#184 = SHAPE_DEFINITION_REPRESENTATION ( #210, #158 ) ;
#185 = APPROVAL_PERSON_ORGANIZATION ( #24, #102, #117 ) ;
#186 = DIRECTION ( 'NONE',  ( -3.491481338843133355E-15, 1.229791517316362731E-16, -1.000000000000000000 ) ) ;
#187 = FACE_OUTER_BOUND ( 'NONE', #89, .T. ) ;
#188 = PLANE ( 'NONE',  #136 ) ;
#189 = EDGE_CURVE ( 'NONE', #67, #67, #14, .T. ) ;
#190 = CARTESIAN_POINT ( 'NONE',  ( 4.189777606611760026E-14, 0.7749999999999984679, 12.00000000000000000 ) ) ;
#191 = CC_DESIGN_APPROVAL ( #93, ( #167 ) ) ;
#192 = MECHANICAL_CONTEXT ( 'NONE', #183, 'mechanical' ) ;
#193 = DIRECTION ( 'NONE',  ( 1.000000000000000000, 0.0000000000000000000, 0.0000000000000000000 ) ) ;
#194 = FACE_OUTER_BOUND ( 'NONE', #84, .T. ) ;
#195 = AXIS2_PLACEMENT_3D ( 'NONE', #104, #177, #157 ) ;
#196 = EDGE_LOOP ( 'NONE', ( #213 ) ) ;
#197 = PERSON_AND_ORGANIZATION ( #113, #152 ) ;
#198 = EDGE_LOOP ( 'NONE', ( #25 ) ) ;
#199 = ORIENTED_EDGE ( 'NONE', *, *, #135, .F. ) ;
#200 = PERSON_AND_ORGANIZATION_ROLE ( 'design_supplier' ) ;
#201 = LOCAL_TIME ( 11, 23, 11.00000000000000000, #28 ) ;
#202 = CYLINDRICAL_SURFACE ( 'NONE', #18, 0.7750000000000000222 ) ;
#203 = CARTESIAN_POINT ( 'NONE',  ( 1.316288464743861212E-13, 1.499999999999995337, 37.69999999999999574 ) ) ;
#204 = AXIS2_PLACEMENT_3D ( 'NONE', #170, #223, #166 ) ;
#205 = DIRECTION ( 'NONE',  ( 3.491481338843133355E-15, -1.224646799147353207E-16, 1.000000000000000000 ) ) ;
#206 = DIRECTION ( 'NONE',  ( 0.0000000000000000000, 1.000000000000000000, 0.0000000000000000000 ) ) ;
#207 = ADVANCED_FACE ( 'NONE', ( #187 ), #188, .F. ) ;
#208 = CARTESIAN_POINT ( 'NONE',  ( 4.189777606611760026E-14, -1.475749820779635178E-15, 12.00000000000000000 ) ) ;
#209 = APPLICATION_CONTEXT ( 'configuration controlled 3d designs of mechanical parts and assemblies' ) ;
#210 = PRODUCT_DEFINITION_SHAPE ( 'NONE', 'NONE',  #154 ) ;
#211 =( NAMED_UNIT ( * ) PLANE_ANGLE_UNIT ( ) SI_UNIT ( $, .RADIAN. ) );
#212 = VERTEX_POINT ( 'NONE', #35 ) ;
#213 = ORIENTED_EDGE ( 'NONE', *, *, #149, .F. ) ;
#214 = CARTESIAN_POINT ( 'NONE',  ( 1.326762908760390423E-13, 1.199999999999995293, 38.00000000000000000 ) ) ;
#215 = CIRCLE ( 'NONE', #17, 0.7750000000000000222 ) ;
#216 = PERSON_AND_ORGANIZATION ( #113, #152 ) ;
#217 = LOCAL_TIME ( 11, 23, 11.00000000000000000, #11 ) ;
#218 = DATE_TIME_ROLE ( 'creation_date' ) ;
#219 = DATE_AND_TIME ( #221, #201 ) ;
#220 = ORIENTED_EDGE ( 'NONE', *, *, #149, .T. ) ;
#221 = CALENDAR_DATE ( 2021, 28, 10 ) ;
#222 = DIRECTION ( 'NONE',  ( -3.491481338843133355E-15, 1.224646799147353207E-16, -1.000000000000000000 ) ) ;
#223 = DIRECTION ( 'NONE',  ( -3.491481338843133355E-15, 1.224646799147353207E-16, -1.000000000000000000 ) ) ;
ENDSEC;
END-ISO-10303-21;
