ISO-10303-21;
HEADER;
FILE_DESCRIPTION (( 'STEP AP203' ),
    '1' );
FILE_NAME ('962934.step',
    '2021-10-28T09:23:11',
    ( '' ),
    ( '' ),
    'SwSTEP 2.0',
    'SolidWorks 2019',
    '' );
FILE_SCHEMA (( 'CONFIG_CONTROL_DESIGN' ));
ENDSEC;

DATA;
#1 = EDGE_LOOP ( 'NONE', ( #47 ) ) ;
#2 = MANIFOLD_SOLID_BREP ( 'Corps-Déplacer/Copier1[2]', #164 ) ;
#3 = ORIENTED_EDGE ( 'NONE', *, *, #97, .T. ) ;
#4 = APPROVAL_STATUS ( 'not_yet_approved' ) ;
#5 = FACE_OUTER_BOUND ( 'NONE', #157, .T. ) ;
#6 = CC_DESIGN_PERSON_AND_ORGANIZATION_ASSIGNMENT ( #166, #154, ( #100 ) ) ;
#7 = CARTESIAN_POINT ( 'NONE',  ( 0.0000000000000000000, 0.0000000000000000000, 0.0000000000000000000 ) ) ;
#8 = CARTESIAN_POINT ( 'NONE',  ( 1.906192921252232855E-15, -6.686024735685322183E-17, 0.5459553513993090634 ) ) ;
#9 = CYLINDRICAL_SURFACE ( 'NONE', #52, 1.499999999999998224 ) ;
#10 = DIRECTION ( 'NONE',  ( 4.293794133377663121E-31, 1.000000000000000000, 1.229791517316362731E-16 ) ) ;
#11 = PERSON_AND_ORGANIZATION ( #197, #124 ) ;
#12 = AXIS2_PLACEMENT_3D ( 'NONE', #213, #143, #131 ) ;
#13 = LOCAL_TIME ( 11, 23, 11.00000000000000000, #140 ) ;
#14 = COORDINATED_UNIVERSAL_TIME_OFFSET ( 1, 0, .AHEAD. ) ;
#15 = DATE_AND_TIME ( #153, #66 ) ;
#16 = EDGE_CURVE ( 'NONE', #146, #146, #185, .T. ) ;
#17 = PERSON_AND_ORGANIZATION ( #197, #124 ) ;
#18 = AXIS2_PLACEMENT_3D ( 'NONE', #91, #200, #130 ) ;
#19 = SECURITY_CLASSIFICATION ( '', '', #123 ) ;
#20 = CARTESIAN_POINT ( 'NONE',  ( 1.316288464743861212E-13, -4.616918432785521081E-15, 37.69999999999999574 ) ) ;
#21 = SHAPE_DEFINITION_REPRESENTATION ( #119, #57 ) ;
#22 = DIRECTION ( 'NONE',  ( 0.0000000000000000000, 1.000000000000000000, 0.0000000000000000000 ) ) ;
#23 = CC_DESIGN_PERSON_AND_ORGANIZATION_ASSIGNMENT ( #79, #122, ( #55 ) ) ;
#24 = CARTESIAN_POINT ( 'NONE',  ( 0.0000000000000000000, 0.0000000000000000000, 0.0000000000000000000 ) ) ;
#25 = CARTESIAN_POINT ( 'NONE',  ( 9.530964606261185971E-16, -0.7500000000000000000, 0.2729776756996551978 ) ) ;
#26 = FACE_OUTER_BOUND ( 'NONE', #137, .T. ) ;
#27 = CARTESIAN_POINT ( 'NONE',  ( 1.326762908760390423E-13, -4.653657836759941941E-15, 38.00000000000000000 ) ) ;
#28 = AXIS2_PLACEMENT_3D ( 'NONE', #7, #54, #10 ) ;
#29 =( NAMED_UNIT ( * ) SI_UNIT ( $, .STERADIAN. ) SOLID_ANGLE_UNIT ( ) );
#30 = APPROVAL_STATUS ( 'not_yet_approved' ) ;
#31 = DIRECTION ( 'NONE',  ( 0.0000000000000000000, 0.0000000000000000000, 1.000000000000000000 ) ) ;
#32 = PERSON_AND_ORGANIZATION ( #197, #124 ) ;
#33 = DATE_AND_TIME ( #71, #13 ) ;
#34 = ORIENTED_EDGE ( 'NONE', *, *, #145, .T. ) ;
#35 = AXIS2_PLACEMENT_3D ( 'NONE', #27, #199, #49 ) ;
#36 = FACE_OUTER_BOUND ( 'NONE', #139, .T. ) ;
#37 = CARTESIAN_POINT ( 'NONE',  ( 3.910459099504309358E-14, 1.124819836996388827E-32, 11.19999999999999929 ) ) ;
#38 = APPROVAL_PERSON_ORGANIZATION ( #32, #141, #218 ) ;
#39 = CC_DESIGN_APPROVAL ( #94, ( #100 ) ) ;
#40 = CARTESIAN_POINT ( 'NONE',  ( 3.910459099504309358E-14, -1.377366499394326377E-15, 11.19999999999999929 ) ) ;
#41 = DIRECTION ( 'NONE',  ( -4.275831445896958607E-31, -1.000000000000000000, -1.224646799147353207E-16 ) ) ;
#42 = DATE_AND_TIME ( #105, #85 ) ;
#43 = APPLICATION_PROTOCOL_DEFINITION ( 'international standard', 'config_control_design', 1994, #117 ) ;
#44 = APPROVAL_STATUS ( 'not_yet_approved' ) ;
#45 = AXIS2_PLACEMENT_3D ( 'NONE', #8, #163, #51 ) ;
#46 = EDGE_CURVE ( 'NONE', #181, #181, #74, .T. ) ;
#47 = ORIENTED_EDGE ( 'NONE', *, *, #16, .F. ) ;
#48 = CC_DESIGN_PERSON_AND_ORGANIZATION_ASSIGNMENT ( #186, #61, ( #100 ) ) ;
#49 = DIRECTION ( 'NONE',  ( 0.0000000000000000000, 1.000000000000000000, 0.0000000000000000000 ) ) ;
#50 = ADVANCED_FACE ( 'NONE', ( #77 ), #212, .T. ) ;
#51 = DIRECTION ( 'NONE',  ( -5.135813185032644414E-31, -1.000000000000000000, -1.445602896647343601E-16 ) ) ;
#52 = AXIS2_PLACEMENT_3D ( 'NONE', #24, #215, #99 ) ;
#53 = CARTESIAN_POINT ( 'NONE',  ( 3.910459099504309358E-14, 0.7499999999999985567, 11.19999999999999929 ) ) ;
#54 = DIRECTION ( 'NONE',  ( -3.491481338843133355E-15, 1.229791517316362731E-16, -1.000000000000000000 ) ) ;
#55 = PRODUCT ( '962934', '962934', '', ( #221 ) ) ;
#56 = PLANE ( 'NONE',  #12 ) ;
#57 = ADVANCED_BREP_SHAPE_REPRESENTATION ( '962934', ( #156, #2, #107 ), #148 ) ;
#58 = CC_DESIGN_APPROVAL ( #182, ( #19 ) ) ;
#59 = COORDINATED_UNIVERSAL_TIME_OFFSET ( 1, 0, .AHEAD. ) ;
#60 = APPROVAL_DATE_TIME ( #15, #141 ) ;
#61 = PERSON_AND_ORGANIZATION_ROLE ( 'design_supplier' ) ;
#62 = AXIS2_PLACEMENT_3D ( 'NONE', #113, #214, #112 ) ;
#63 = APPROVAL_PERSON_ORGANIZATION ( #17, #182, #64 ) ;
#64 = APPROVAL_ROLE ( '' ) ;
#65 = ORIENTED_EDGE ( 'NONE', *, *, #46, .F. ) ;
#66 = LOCAL_TIME ( 11, 23, 11.00000000000000000, #14 ) ;
#67 = ORIENTED_EDGE ( 'NONE', *, *, #97, .F. ) ;
#68 = ORIENTED_EDGE ( 'NONE', *, *, #145, .F. ) ;
#69 = ORIENTED_EDGE ( 'NONE', *, *, #104, .F. ) ;
#70 = DIRECTION ( 'NONE',  ( 3.491481338843133355E-15, -1.229791517316362731E-16, 1.000000000000000000 ) ) ;
#71 = CALENDAR_DATE ( 2021, 28, 10 ) ;
#72 = FACE_OUTER_BOUND ( 'NONE', #208, .T. ) ;
#73 = FACE_OUTER_BOUND ( 'NONE', #86, .T. ) ;
#74 = CIRCLE ( 'NONE', #18, 0.7500000000000000000 ) ;
#75 = DIRECTION ( 'NONE',  ( 0.0000000000000000000, 1.000000000000000000, 0.0000000000000000000 ) ) ;
#76 = AXIS2_PLACEMENT_3D ( 'NONE', #40, #115, #178 ) ;
#77 = FACE_OUTER_BOUND ( 'NONE', #174, .T. ) ;
#78 = CALENDAR_DATE ( 2021, 28, 10 ) ;
#79 = PERSON_AND_ORGANIZATION ( #197, #124 ) ;
#80 = EDGE_CURVE ( 'NONE', #95, #95, #84, .T. ) ;
#81 = CARTESIAN_POINT ( 'NONE',  ( 1.326762908760390423E-13, 1.199999999999995293, 38.00000000000000000 ) ) ;
#82 = DATE_TIME_ROLE ( 'creation_date' ) ;
#83 = DIRECTION ( 'NONE',  ( 1.000000000000000000, 0.0000000000000000000, 0.0000000000000000000 ) ) ;
#84 = CIRCLE ( 'NONE', #76, 0.7500000000000000000 ) ;
#85 = LOCAL_TIME ( 11, 23, 11.00000000000000000, #101 ) ;
#86 = EDGE_LOOP ( 'NONE', ( #222 ) ) ;
#87 = AXIS2_PLACEMENT_3D ( 'NONE', #37, #201, #41 ) ;
#88 = CLOSED_SHELL ( 'NONE', ( #179, #98, #217, #202, #121 ) ) ;
#89 = APPROVAL_PERSON_ORGANIZATION ( #106, #94, #120 ) ;
#90 = EDGE_LOOP ( 'NONE', ( #177 ) ) ;
#91 = CARTESIAN_POINT ( 'NONE',  ( 9.530964606261189915E-16, -3.343012367842670336E-17, 0.2729776756996553089 ) ) ;
#92 = CARTESIAN_POINT ( 'NONE',  ( 3.910459099504309358E-14, -1.377366499394326377E-15, 11.19999999999999929 ) ) ;
#93 = CYLINDRICAL_SURFACE ( 'NONE', #28, 0.7500000000000000000 ) ;
#94 = APPROVAL ( #44, 'UNSPECIFIED' ) ;
#95 = VERTEX_POINT ( 'NONE', #53 ) ;
#96 = DIRECTION ( 'NONE',  ( -4.275831445896958607E-31, -1.000000000000000000, -1.224646799147353207E-16 ) ) ;
#97 = EDGE_CURVE ( 'NONE', #129, #129, #210, .T. ) ;
#98 = ADVANCED_FACE ( 'NONE', ( #128, #116 ), #195, .T. ) ;
#99 = DIRECTION ( 'NONE',  ( 4.275831445896958607E-31, 1.000000000000000000, 1.224646799147353207E-16 ) ) ;
#100 = PRODUCT_DEFINITION_FORMATION_WITH_SPECIFIED_SOURCE ( 'ANY', '', #55, .NOT_KNOWN. ) ;
#101 = COORDINATED_UNIVERSAL_TIME_OFFSET ( 1, 0, .AHEAD. ) ;
#102 = APPLICATION_CONTEXT ( 'configuration controlled 3d designs of mechanical parts and assemblies' ) ;
#103 =( LENGTH_UNIT ( ) NAMED_UNIT ( * ) SI_UNIT ( .MILLI., .METRE. ) );
#104 = EDGE_CURVE ( 'NONE', #204, #204, #206, .T. ) ;
#105 = CALENDAR_DATE ( 2021, 28, 10 ) ;
#106 = PERSON_AND_ORGANIZATION ( #197, #124 ) ;
#107 = AXIS2_PLACEMENT_3D ( 'NONE', #132, #31, #83 ) ;
#108 = EDGE_LOOP ( 'NONE', ( #65 ) ) ;
#109 = ORIENTED_EDGE ( 'NONE', *, *, #104, .T. ) ;
#110 = AXIS2_PLACEMENT_3D ( 'NONE', #160, #183, #75 ) ;
#111 = EDGE_LOOP ( 'NONE', ( #34 ) ) ;
#112 = DIRECTION ( 'NONE',  ( 0.0000000000000000000, 1.000000000000000000, 0.0000000000000000000 ) ) ;
#113 = CARTESIAN_POINT ( 'NONE',  ( 4.887738030772393651E-14, -1.721589831294966321E-15, 13.99903810567664664 ) ) ;
#114 = CARTESIAN_POINT ( 'NONE',  ( 1.316288464743861212E-13, 1.499999999999995337, 37.69999999999999574 ) ) ;
#115 = DIRECTION ( 'NONE',  ( -3.491481338843133355E-15, 1.229791517316362731E-16, -1.000000000000000000 ) ) ;
#116 = FACE_BOUND ( 'NONE', #111, .T. ) ;
#117 = APPLICATION_CONTEXT ( 'configuration controlled 3d designs of mechanical parts and assemblies' ) ;
#118 = PERSON_AND_ORGANIZATION ( #197, #124 ) ;
#119 = PRODUCT_DEFINITION_SHAPE ( 'NONE', 'NONE',  #189 ) ;
#120 = APPROVAL_ROLE ( '' ) ;
#121 = ADVANCED_FACE ( 'NONE', ( #26 ), #159, .F. ) ;
#122 = PERSON_AND_ORGANIZATION_ROLE ( 'design_owner' ) ;
#123 = SECURITY_CLASSIFICATION_LEVEL ( 'unclassified' ) ;
#124 = ORGANIZATION ( 'UNSPECIFIED', 'UNSPECIFIED', '' ) ;
#125 = DIRECTION ( 'NONE',  ( -3.491481338843133355E-15, 1.224646799147353207E-16, -1.000000000000000000 ) ) ;
#126 = LOCAL_TIME ( 11, 23, 11.00000000000000000, #59 ) ;
#127 = CONICAL_SURFACE ( 'NONE', #45, 1.499999999999995559, 1.221730476396026388 ) ;
#128 = FACE_OUTER_BOUND ( 'NONE', #1, .T. ) ;
#129 = VERTEX_POINT ( 'NONE', #134 ) ;
#130 = DIRECTION ( 'NONE',  ( -5.135813185032628650E-31, -1.000000000000000000, -1.445602896647339163E-16 ) ) ;
#131 = DIRECTION ( 'NONE',  ( 4.275831445896958607E-31, 1.000000000000000000, 1.224646799147353207E-16 ) ) ;
#132 = CARTESIAN_POINT ( 'NONE',  ( 0.0000000000000000000, 0.0000000000000000000, 0.0000000000000000000 ) ) ;
#133 = CALENDAR_DATE ( 2021, 28, 10 ) ;
#134 = CARTESIAN_POINT ( 'NONE',  ( 4.887738030772393651E-14, 1.499999999999996891, 13.99903810567664664 ) ) ;
#135 = CARTESIAN_POINT ( 'NONE',  ( 3.910459099504309358E-14, 0.7499999999999985567, 11.19999999999999929 ) ) ;
#136 = AXIS2_PLACEMENT_3D ( 'NONE', #198, #161, #96 ) ;
#137 = EDGE_LOOP ( 'NONE', ( #109 ) ) ;
#138 = CC_DESIGN_APPROVAL ( #141, ( #189 ) ) ;
#139 = EDGE_LOOP ( 'NONE', ( #68 ) ) ;
#140 = COORDINATED_UNIVERSAL_TIME_OFFSET ( 1, 0, .AHEAD. ) ;
#141 = APPROVAL ( #30, 'UNSPECIFIED' ) ;
#142 = CC_DESIGN_SECURITY_CLASSIFICATION ( #19, ( #100 ) ) ;
#143 = DIRECTION ( 'NONE',  ( -3.491481338843133355E-15, 1.224646799147353207E-16, -1.000000000000000000 ) ) ;
#144 = FACE_BOUND ( 'NONE', #173, .T. ) ;
#145 = EDGE_CURVE ( 'NONE', #220, #220, #147, .T. ) ;
#146 = VERTEX_POINT ( 'NONE', #114 ) ;
#147 = CIRCLE ( 'NONE', #35, 1.199999999999999956 ) ;
#148 =( GEOMETRIC_REPRESENTATION_CONTEXT ( 3 ) GLOBAL_UNCERTAINTY_ASSIGNED_CONTEXT ( ( #193 ) ) GLOBAL_UNIT_ASSIGNED_CONTEXT ( ( #103, #168, #29 ) ) REPRESENTATION_CONTEXT ( 'NONE', 'WORKASPACE' ) );
#149 = FACE_OUTER_BOUND ( 'NONE', #108, .T. ) ;
#150 = CARTESIAN_POINT ( 'NONE',  ( 4.887738030772393651E-14, -1.721589831294966321E-15, 13.99903810567664664 ) ) ;
#151 = DATE_AND_TIME ( #78, #175 ) ;
#152 = APPLICATION_PROTOCOL_DEFINITION ( 'international standard', 'config_control_design', 1994, #102 ) ;
#153 = CALENDAR_DATE ( 2021, 28, 10 ) ;
#154 = PERSON_AND_ORGANIZATION_ROLE ( 'creator' ) ;
#155 = PERSON_AND_ORGANIZATION_ROLE ( 'creator' ) ;
#156 = MANIFOLD_SOLID_BREP ( 'Corps-Déplacer/Copier1[1]', #88 ) ;
#157 = EDGE_LOOP ( 'NONE', ( #3 ) ) ;
#158 = EDGE_LOOP ( 'NONE', ( #207 ) ) ;
#159 = PLANE ( 'NONE',  #136 ) ;
#160 = CARTESIAN_POINT ( 'NONE',  ( 1.326762908760390423E-13, -4.653657836759941941E-15, 38.00000000000000000 ) ) ;
#161 = DIRECTION ( 'NONE',  ( 3.491481338843133355E-15, -1.224646799147353207E-16, 1.000000000000000000 ) ) ;
#162 = CC_DESIGN_PERSON_AND_ORGANIZATION_ASSIGNMENT ( #118, #155, ( #189 ) ) ;
#163 = DIRECTION ( 'NONE',  ( 3.491481338843133355E-15, -1.224646799147353207E-16, 1.000000000000000000 ) ) ;
#164 = CLOSED_SHELL ( 'NONE', ( #50, #194, #176 ) ) ;
#165 = FACE_OUTER_BOUND ( 'NONE', #90, .T. ) ;
#166 = PERSON_AND_ORGANIZATION ( #197, #124 ) ;
#167 = CC_DESIGN_PERSON_AND_ORGANIZATION_ASSIGNMENT ( #11, #171, ( #19 ) ) ;
#168 =( NAMED_UNIT ( * ) PLANE_ANGLE_UNIT ( ) SI_UNIT ( $, .RADIAN. ) );
#169 = CC_DESIGN_DATE_AND_TIME_ASSIGNMENT ( #203, #82, ( #189 ) ) ;
#170 = APPROVAL_DATE_TIME ( #42, #94 ) ;
#171 = PERSON_AND_ORGANIZATION_ROLE ( 'classification_officer' ) ;
#172 = AXIS2_PLACEMENT_3D ( 'NONE', #150, #70, #216 ) ;
#173 = EDGE_LOOP ( 'NONE', ( #69 ) ) ;
#174 = EDGE_LOOP ( 'NONE', ( #223 ) ) ;
#175 = LOCAL_TIME ( 11, 23, 11.00000000000000000, #190 ) ;
#176 = ADVANCED_FACE ( 'NONE', ( #180 ), #127, .T. ) ;
#177 = ORIENTED_EDGE ( 'NONE', *, *, #80, .T. ) ;
#178 = DIRECTION ( 'NONE',  ( 0.0000000000000000000, 1.000000000000000000, 0.0000000000000000000 ) ) ;
#179 = ADVANCED_FACE ( 'NONE', ( #72, #73 ), #9, .T. ) ;
#180 = FACE_OUTER_BOUND ( 'NONE', #158, .T. ) ;
#181 = VERTEX_POINT ( 'NONE', #25 ) ;
#182 = APPROVAL ( #4, 'UNSPECIFIED' ) ;
#183 = DIRECTION ( 'NONE',  ( -3.491481338843133355E-15, 1.224646799147353207E-16, -1.000000000000000000 ) ) ;
#184 = DIRECTION ( 'NONE',  ( -3.491481338843133355E-15, 1.229791517316362731E-16, -1.000000000000000000 ) ) ;
#185 = CIRCLE ( 'NONE', #196, 1.499999999999999778 ) ;
#186 = PERSON_AND_ORGANIZATION ( #197, #124 ) ;
#187 = AXIS2_PLACEMENT_3D ( 'NONE', #92, #184, #22 ) ;
#188 = CONICAL_SURFACE ( 'NONE', #172, 1.499999999999998668, 0.2617993877991500740 ) ;
#189 = PRODUCT_DEFINITION ( 'UNKNOWN', '', #100, #209 ) ;
#190 = COORDINATED_UNIVERSAL_TIME_OFFSET ( 1, 0, .AHEAD. ) ;
#191 = DATE_TIME_ROLE ( 'classification_date' ) ;
#192 = DIRECTION ( 'NONE',  ( 0.0000000000000000000, 1.000000000000000000, 0.0000000000000000000 ) ) ;
#193 = UNCERTAINTY_MEASURE_WITH_UNIT (LENGTH_MEASURE( 1.000000000000000082E-05 ), #103, 'distance_accuracy_value', 'NONE');
#194 = ADVANCED_FACE ( 'NONE', ( #165, #149 ), #93, .T. ) ;
#195 = CONICAL_SURFACE ( 'NONE', #110, 1.199999999999999956, 0.7853981633974453924 ) ;
#196 = AXIS2_PLACEMENT_3D ( 'NONE', #20, #125, #192 ) ;
#197 = PERSON ( 'UNSPECIFIED', 'UNSPECIFIED', 'UNSPECIFIED', ('UNSPECIFIED'), ('UNSPECIFIED'), ('UNSPECIFIED') ) ;
#198 = CARTESIAN_POINT ( 'NONE',  ( 3.910459099504309358E-14, 1.124819836996388827E-32, 11.19999999999999929 ) ) ;
#199 = DIRECTION ( 'NONE',  ( -3.491481338843133355E-15, 1.224646799147353207E-16, -1.000000000000000000 ) ) ;
#200 = DIRECTION ( 'NONE',  ( -3.491481338843133355E-15, 1.224646799147353207E-16, -1.000000000000000000 ) ) ;
#201 = DIRECTION ( 'NONE',  ( 3.491481338843133355E-15, -1.224646799147353207E-16, 1.000000000000000000 ) ) ;
#202 = ADVANCED_FACE ( 'NONE', ( #144, #5 ), #188, .T. ) ;
#203 = DATE_AND_TIME ( #133, #126 ) ;
#204 = VERTEX_POINT ( 'NONE', #135 ) ;
#205 = CC_DESIGN_DATE_AND_TIME_ASSIGNMENT ( #151, #191, ( #19 ) ) ;
#206 = CIRCLE ( 'NONE', #187, 0.7500000000000000000 ) ;
#207 = ORIENTED_EDGE ( 'NONE', *, *, #46, .T. ) ;
#208 = EDGE_LOOP ( 'NONE', ( #67 ) ) ;
#209 = DESIGN_CONTEXT ( 'detailed design', #102, 'design' ) ;
#210 = CIRCLE ( 'NONE', #62, 1.499999999999998668 ) ;
#211 = APPROVAL_DATE_TIME ( #33, #182 ) ;
#212 = PLANE ( 'NONE',  #87 ) ;
#213 = CARTESIAN_POINT ( 'NONE',  ( 1.326762908760390423E-13, 8.998558695971077224E-33, 38.00000000000000000 ) ) ;
#214 = DIRECTION ( 'NONE',  ( -3.491481338843133355E-15, 1.229791517316362731E-16, -1.000000000000000000 ) ) ;
#215 = DIRECTION ( 'NONE',  ( -3.491481338843133355E-15, 1.224646799147353207E-16, -1.000000000000000000 ) ) ;
#216 = DIRECTION ( 'NONE',  ( 0.0000000000000000000, -1.000000000000000000, 0.0000000000000000000 ) ) ;
#217 = ADVANCED_FACE ( 'NONE', ( #36 ), #56, .F. ) ;
#218 = APPROVAL_ROLE ( '' ) ;
#219 = PRODUCT_RELATED_PRODUCT_CATEGORY ( 'detail', '', ( #55 ) ) ;
#220 = VERTEX_POINT ( 'NONE', #81 ) ;
#221 = MECHANICAL_CONTEXT ( 'NONE', #117, 'mechanical' ) ;
#222 = ORIENTED_EDGE ( 'NONE', *, *, #16, .T. ) ;
#223 = ORIENTED_EDGE ( 'NONE', *, *, #80, .F. ) ;
ENDSEC;
END-ISO-10303-21;
