ISO-10303-21;
HEADER;
FILE_DESCRIPTION (( 'STEP AP203' ),
    '1' );
FILE_NAME ('962933.step',
    '2021-10-28T09:23:10',
    ( '' ),
    ( '' ),
    'SwSTEP 2.0',
    'SolidWorks 2019',
    '' );
FILE_SCHEMA (( 'CONFIG_CONTROL_DESIGN' ));
ENDSEC;

DATA;
#1 = DATE_AND_TIME ( #30, #31 ) ;
#2 = AXIS2_PLACEMENT_3D ( 'NONE', #165, #40, #45 ) ;
#3 = FACE_OUTER_BOUND ( 'NONE', #178, .T. ) ;
#4 = CC_DESIGN_DATE_AND_TIME_ASSIGNMENT ( #1, #36, ( #83 ) ) ;
#5 = DIRECTION ( 'NONE',  ( 0.0000000000000000000, 1.000000000000000000, 0.0000000000000000000 ) ) ;
#6 = DIRECTION ( 'NONE',  ( -5.312910191413064694E-31, -1.000000000000000000, -1.495451272393799296E-16 ) ) ;
#7 = CC_DESIGN_APPROVAL ( #192, ( #83 ) ) ;
#8 = CARTESIAN_POINT ( 'NONE',  ( 3.910459099504309358E-14, 1.124819836996388827E-32, 11.19999999999999929 ) ) ;
#9 = DIRECTION ( 'NONE',  ( -3.491481338843133355E-15, 1.224646799147353207E-16, -1.000000000000000000 ) ) ;
#10 = APPLICATION_PROTOCOL_DEFINITION ( 'international standard', 'config_control_design', 1994, #42 ) ;
#11 = DATE_TIME_ROLE ( 'creation_date' ) ;
#12 = AXIS2_PLACEMENT_3D ( 'NONE', #221, #28, #153 ) ;
#13 = EDGE_CURVE ( 'NONE', #197, #197, #99, .T. ) ;
#14 = VERTEX_POINT ( 'NONE', #71 ) ;
#15 = PERSON_AND_ORGANIZATION ( #222, #223 ) ;
#16 = CC_DESIGN_SECURITY_CLASSIFICATION ( #83, ( #156 ) ) ;
#17 = ORIENTED_EDGE ( 'NONE', *, *, #13, .F. ) ;
#18 = ORIENTED_EDGE ( 'NONE', *, *, #168, .F. ) ;
#19 = ADVANCED_FACE ( 'NONE', ( #161 ), #67, .T. ) ;
#20 = EDGE_LOOP ( 'NONE', ( #17 ) ) ;
#21 = CARTESIAN_POINT ( 'NONE',  ( 9.213265786052483124E-16, -3.231578622247914637E-17, 0.2638784198430000894 ) ) ;
#22 = CARTESIAN_POINT ( 'NONE',  ( 4.920313995147997155E-14, 1.499999999999996891, 14.09233937586586904 ) ) ;
#23 = FACE_BOUND ( 'NONE', #194, .T. ) ;
#24 = CIRCLE ( 'NONE', #133, 0.7249999999999999778 ) ;
#25 = LOCAL_TIME ( 11, 23, 10.00000000000000000, #116 ) ;
#26 = DIRECTION ( 'NONE',  ( 4.275831445896958607E-31, 1.000000000000000000, 1.224646799147353207E-16 ) ) ;
#27 = DIRECTION ( 'NONE',  ( 0.0000000000000000000, 1.000000000000000000, 0.0000000000000000000 ) ) ;
#28 = DIRECTION ( 'NONE',  ( 0.0000000000000000000, 0.0000000000000000000, 1.000000000000000000 ) ) ;
#29 = CONICAL_SURFACE ( 'NONE', #189, 1.199999999999999956, 0.7853981633974453924 ) ;
#30 = CALENDAR_DATE ( 2021, 28, 10 ) ;
#31 = LOCAL_TIME ( 11, 23, 10.00000000000000000, #34 ) ;
#32 = DATE_AND_TIME ( #35, #64 ) ;
#33 = ADVANCED_FACE ( 'NONE', ( #106 ), #81, .F. ) ;
#34 = COORDINATED_UNIVERSAL_TIME_OFFSET ( 1, 0, .AHEAD. ) ;
#35 = CALENDAR_DATE ( 2021, 28, 10 ) ;
#36 = DATE_TIME_ROLE ( 'classification_date' ) ;
#37 = AXIS2_PLACEMENT_3D ( 'NONE', #151, #202, #164 ) ;
#38 = EDGE_LOOP ( 'NONE', ( #39 ) ) ;
#39 = ORIENTED_EDGE ( 'NONE', *, *, #168, .T. ) ;
#40 = DIRECTION ( 'NONE',  ( -3.491481338843133355E-15, 1.224646799147353207E-16, -1.000000000000000000 ) ) ;
#41 = DIRECTION ( 'NONE',  ( -3.491481338843133355E-15, 1.229791517316362731E-16, -1.000000000000000000 ) ) ;
#42 = APPLICATION_CONTEXT ( 'configuration controlled 3d designs of mechanical parts and assemblies' ) ;
#43 = FACE_OUTER_BOUND ( 'NONE', #20, .T. ) ;
#44 = PRODUCT_RELATED_PRODUCT_CATEGORY ( 'detail', '', ( #94 ) ) ;
#45 = DIRECTION ( 'NONE',  ( 4.275831445896958607E-31, 1.000000000000000000, 1.224646799147353207E-16 ) ) ;
#46 = CARTESIAN_POINT ( 'NONE',  ( 3.910459099504309358E-14, -1.377366499394326377E-15, 11.19999999999999929 ) ) ;
#47 = CC_DESIGN_PERSON_AND_ORGANIZATION_ASSIGNMENT ( #70, #203, ( #83 ) ) ;
#48 = CARTESIAN_POINT ( 'NONE',  ( 3.910459099504309358E-14, 0.7249999999999985345, 11.19999999999999929 ) ) ;
#49 = VERTEX_POINT ( 'NONE', #173 ) ;
#50 = PERSON_AND_ORGANIZATION_ROLE ( 'design_owner' ) ;
#51 = PRODUCT_DEFINITION ( 'UNKNOWN', '', #156, #59 ) ;
#52 = COORDINATED_UNIVERSAL_TIME_OFFSET ( 1, 0, .AHEAD. ) ;
#53 = MECHANICAL_CONTEXT ( 'NONE', #117, 'mechanical' ) ;
#54 = CIRCLE ( 'NONE', #181, 0.7249999999999999778 ) ;
#55 = EDGE_LOOP ( 'NONE', ( #120 ) ) ;
#56 = ADVANCED_FACE ( 'NONE', ( #208, #167 ), #29, .T. ) ;
#57 = COORDINATED_UNIVERSAL_TIME_OFFSET ( 1, 0, .AHEAD. ) ;
#58 = AXIS2_PLACEMENT_3D ( 'NONE', #148, #150, #126 ) ;
#59 = DESIGN_CONTEXT ( 'detailed design', #42, 'design' ) ;
#60 = APPROVAL_DATE_TIME ( #86, #192 ) ;
#61 = ORIENTED_EDGE ( 'NONE', *, *, #65, .T. ) ;
#62 = FACE_OUTER_BOUND ( 'NONE', #104, .T. ) ;
#63 = CARTESIAN_POINT ( 'NONE',  ( 0.0000000000000000000, 0.0000000000000000000, 0.0000000000000000000 ) ) ;
#64 = LOCAL_TIME ( 11, 23, 10.00000000000000000, #52 ) ;
#65 = EDGE_CURVE ( 'NONE', #93, #93, #54, .T. ) ;
#66 = DIRECTION ( 'NONE',  ( -3.491481338843133355E-15, 1.224646799147353207E-16, -1.000000000000000000 ) ) ;
#67 = PLANE ( 'NONE',  #195 ) ;
#68 = PLANE ( 'NONE',  #220 ) ;
#69 = AXIS2_PLACEMENT_3D ( 'NONE', #63, #108, #185 ) ;
#70 = PERSON_AND_ORGANIZATION ( #222, #223 ) ;
#71 = CARTESIAN_POINT ( 'NONE',  ( 3.910459099504309358E-14, 0.7249999999999985345, 11.19999999999999929 ) ) ;
#72 = MANIFOLD_SOLID_BREP ( 'Corps-Déplacer/Copier1[2]', #159 ) ;
#73 = PERSON_AND_ORGANIZATION ( #222, #223 ) ;
#74 = PERSON_AND_ORGANIZATION_ROLE ( 'creator' ) ;
#75 = CC_DESIGN_PERSON_AND_ORGANIZATION_ASSIGNMENT ( #118, #138, ( #156 ) ) ;
#76 = PERSON_AND_ORGANIZATION ( #222, #223 ) ;
#77 = DIRECTION ( 'NONE',  ( 3.491481338843133355E-15, -1.224646799147353207E-16, 1.000000000000000000 ) ) ;
#78 = CYLINDRICAL_SURFACE ( 'NONE', #69, 0.7249999999999999778 ) ;
#79 = CONICAL_SURFACE ( 'NONE', #103, 1.499999999999998668, 0.2617993877991500740 ) ;
#80 = DIRECTION ( 'NONE',  ( -4.275831445896958607E-31, -1.000000000000000000, -1.224646799147353207E-16 ) ) ;
#81 = PLANE ( 'NONE',  #137 ) ;
#82 = APPROVAL_DATE_TIME ( #100, #121 ) ;
#83 = SECURITY_CLASSIFICATION ( '', '', #216 ) ;
#84 = ADVANCED_FACE ( 'NONE', ( #111 ), #88, .T. ) ;
#85 = CC_DESIGN_APPROVAL ( #121, ( #156 ) ) ;
#86 = DATE_AND_TIME ( #140, #160 ) ;
#87 = CARTESIAN_POINT ( 'NONE',  ( 4.920313995147997155E-14, -1.733063942358321058E-15, 14.09233937586586904 ) ) ;
#88 = CONICAL_SURFACE ( 'NONE', #210, 1.499999999999995559, 1.221730476396026388 ) ;
#89 = DIRECTION ( 'NONE',  ( 0.0000000000000000000, 1.000000000000000000, 0.0000000000000000000 ) ) ;
#90 = ADVANCED_FACE ( 'NONE', ( #23, #201 ), #79, .T. ) ;
#91 = ORIENTED_EDGE ( 'NONE', *, *, #172, .F. ) ;
#92 = CARTESIAN_POINT ( 'NONE',  ( 4.920313995147997155E-14, -1.733063942358321058E-15, 14.09233937586586904 ) ) ;
#93 = VERTEX_POINT ( 'NONE', #149 ) ;
#94 = PRODUCT ( '962933', '962933', '', ( #53 ) ) ;
#95 = CYLINDRICAL_SURFACE ( 'NONE', #2, 1.499999999999998224 ) ;
#96 = DIRECTION ( 'NONE',  ( 0.0000000000000000000, -1.000000000000000000, 0.0000000000000000000 ) ) ;
#97 = CARTESIAN_POINT ( 'NONE',  ( 3.910459099504309358E-14, -1.377366499394326377E-15, 11.19999999999999929 ) ) ;
#98 = CALENDAR_DATE ( 2021, 28, 10 ) ;
#99 = CIRCLE ( 'NONE', #128, 1.499999999999998668 ) ;
#100 = DATE_AND_TIME ( #98, #176 ) ;
#101 = EDGE_CURVE ( 'NONE', #212, #212, #166, .T. ) ;
#102 = EDGE_LOOP ( 'NONE', ( #91 ) ) ;
#103 = AXIS2_PLACEMENT_3D ( 'NONE', #92, #187, #96 ) ;
#104 = EDGE_LOOP ( 'NONE', ( #193 ) ) ;
#105 = ORIENTED_EDGE ( 'NONE', *, *, #179, .T. ) ;
#106 = FACE_OUTER_BOUND ( 'NONE', #206, .T. ) ;
#107 = AXIS2_PLACEMENT_3D ( 'NONE', #46, #41, #214 ) ;
#108 = DIRECTION ( 'NONE',  ( -3.491481338843133355E-15, 1.229791517316362731E-16, -1.000000000000000000 ) ) ;
#109 = DIRECTION ( 'NONE',  ( 3.491481338843133355E-15, -1.224646799147353207E-16, 1.000000000000000000 ) ) ;
#110 = ADVANCED_FACE ( 'NONE', ( #43, #62 ), #95, .T. ) ;
#111 = FACE_OUTER_BOUND ( 'NONE', #207, .T. ) ;
#112 = APPROVAL_PERSON_ORGANIZATION ( #76, #192, #177 ) ;
#113 = FACE_OUTER_BOUND ( 'NONE', #144, .T. ) ;
#114 = APPROVAL_DATE_TIME ( #190, #186 ) ;
#115 =( NAMED_UNIT ( * ) SI_UNIT ( $, .STERADIAN. ) SOLID_ANGLE_UNIT ( ) );
#116 = COORDINATED_UNIVERSAL_TIME_OFFSET ( 1, 0, .AHEAD. ) ;
#117 = APPLICATION_CONTEXT ( 'configuration controlled 3d designs of mechanical parts and assemblies' ) ;
#118 = PERSON_AND_ORGANIZATION ( #222, #223 ) ;
#119 = APPLICATION_PROTOCOL_DEFINITION ( 'international standard', 'config_control_design', 1994, #117 ) ;
#120 = ORIENTED_EDGE ( 'NONE', *, *, #179, .F. ) ;
#121 = APPROVAL ( #135, 'UNSPECIFIED' ) ;
#122 = APPROVAL_PERSON_ORGANIZATION ( #170, #186, #134 ) ;
#123 = ORIENTED_EDGE ( 'NONE', *, *, #101, .T. ) ;
#124 = ORIENTED_EDGE ( 'NONE', *, *, #13, .T. ) ;
#125 = CC_DESIGN_PERSON_AND_ORGANIZATION_ASSIGNMENT ( #73, #74, ( #51 ) ) ;
#126 = DIRECTION ( 'NONE',  ( 0.0000000000000000000, 1.000000000000000000, 0.0000000000000000000 ) ) ;
#127 = DIRECTION ( 'NONE',  ( -3.491481338843133355E-15, 1.229791517316362731E-16, -1.000000000000000000 ) ) ;
#128 = AXIS2_PLACEMENT_3D ( 'NONE', #87, #157, #89 ) ;
#129 = CC_DESIGN_APPROVAL ( #186, ( #51 ) ) ;
#130 = CARTESIAN_POINT ( 'NONE',  ( 1.326762908760390423E-13, 1.199999999999995293, 38.00000000000000000 ) ) ;
#131 = CARTESIAN_POINT ( 'NONE',  ( 1.326762908760390423E-13, 8.998558695971077224E-33, 38.00000000000000000 ) ) ;
#132 = DIRECTION ( 'NONE',  ( -4.275831445896958607E-31, -1.000000000000000000, -1.224646799147353207E-16 ) ) ;
#133 = AXIS2_PLACEMENT_3D ( 'NONE', #97, #127, #5 ) ;
#134 = APPROVAL_ROLE ( '' ) ;
#135 = APPROVAL_STATUS ( 'not_yet_approved' ) ;
#136 =( NAMED_UNIT ( * ) PLANE_ANGLE_UNIT ( ) SI_UNIT ( $, .RADIAN. ) );
#137 = AXIS2_PLACEMENT_3D ( 'NONE', #131, #66, #26 ) ;
#138 = PERSON_AND_ORGANIZATION_ROLE ( 'design_supplier' ) ;
#139 = COORDINATED_UNIVERSAL_TIME_OFFSET ( 1, 0, .AHEAD. ) ;
#140 = CALENDAR_DATE ( 2021, 28, 10 ) ;
#141 = ORIENTED_EDGE ( 'NONE', *, *, #65, .F. ) ;
#142 = ADVANCED_BREP_SHAPE_REPRESENTATION ( '962933', ( #213, #72, #12 ), #171 ) ;
#143 = SHAPE_DEFINITION_REPRESENTATION ( #184, #142 ) ;
#144 = EDGE_LOOP ( 'NONE', ( #105 ) ) ;
#145 = UNCERTAINTY_MEASURE_WITH_UNIT (LENGTH_MEASURE( 1.000000000000000082E-05 ), #191, 'distance_accuracy_value', 'NONE');
#146 = ADVANCED_FACE ( 'NONE', ( #215 ), #68, .F. ) ;
#147 = DIRECTION ( 'NONE',  ( -5.135813185032644414E-31, -1.000000000000000000, -1.445602896647343601E-16 ) ) ;
#148 = CARTESIAN_POINT ( 'NONE',  ( 1.316288464743861212E-13, -4.616918432785521081E-15, 37.69999999999999574 ) ) ;
#149 = CARTESIAN_POINT ( 'NONE',  ( 9.213265786052479180E-16, -0.7249999999999999778, 0.2638784198429999783 ) ) ;
#150 = DIRECTION ( 'NONE',  ( -3.491481338843133355E-15, 1.224646799147353207E-16, -1.000000000000000000 ) ) ;
#151 = CARTESIAN_POINT ( 'NONE',  ( 1.326762908760390423E-13, -4.653657836759941941E-15, 38.00000000000000000 ) ) ;
#152 = PERSON_AND_ORGANIZATION ( #222, #223 ) ;
#153 = DIRECTION ( 'NONE',  ( 1.000000000000000000, 0.0000000000000000000, 0.0000000000000000000 ) ) ;
#154 = CC_DESIGN_DATE_AND_TIME_ASSIGNMENT ( #32, #11, ( #51 ) ) ;
#155 = PERSON_AND_ORGANIZATION_ROLE ( 'creator' ) ;
#156 = PRODUCT_DEFINITION_FORMATION_WITH_SPECIFIED_SOURCE ( 'ANY', '', #94, .NOT_KNOWN. ) ;
#157 = DIRECTION ( 'NONE',  ( -3.491481338843133355E-15, 1.229791517316362731E-16, -1.000000000000000000 ) ) ;
#158 = CC_DESIGN_PERSON_AND_ORGANIZATION_ASSIGNMENT ( #204, #50, ( #94 ) ) ;
#159 = CLOSED_SHELL ( 'NONE', ( #19, #198, #84 ) ) ;
#160 = LOCAL_TIME ( 11, 23, 10.00000000000000000, #57 ) ;
#161 = FACE_OUTER_BOUND ( 'NONE', #55, .T. ) ;
#162 = ORIENTED_EDGE ( 'NONE', *, *, #101, .F. ) ;
#163 = CARTESIAN_POINT ( 'NONE',  ( 1.906192921252232855E-15, -6.686024735685322183E-17, 0.5459553513993090634 ) ) ;
#164 = DIRECTION ( 'NONE',  ( 0.0000000000000000000, 1.000000000000000000, 0.0000000000000000000 ) ) ;
#165 = CARTESIAN_POINT ( 'NONE',  ( 0.0000000000000000000, 0.0000000000000000000, 0.0000000000000000000 ) ) ;
#166 = CIRCLE ( 'NONE', #37, 1.199999999999999956 ) ;
#167 = FACE_BOUND ( 'NONE', #180, .T. ) ;
#168 = EDGE_CURVE ( 'NONE', #14, #14, #24, .T. ) ;
#169 = APPROVAL_ROLE ( '' ) ;
#170 = PERSON_AND_ORGANIZATION ( #222, #223 ) ;
#171 =( GEOMETRIC_REPRESENTATION_CONTEXT ( 3 ) GLOBAL_UNCERTAINTY_ASSIGNED_CONTEXT ( ( #145 ) ) GLOBAL_UNIT_ASSIGNED_CONTEXT ( ( #191, #136, #115 ) ) REPRESENTATION_CONTEXT ( 'NONE', 'WORKASPACE' ) );
#172 = EDGE_CURVE ( 'NONE', #49, #49, #211, .T. ) ;
#173 = CARTESIAN_POINT ( 'NONE',  ( 1.316288464743861212E-13, 1.499999999999995337, 37.69999999999999574 ) ) ;
#174 = CLOSED_SHELL ( 'NONE', ( #110, #56, #33, #90, #146 ) ) ;
#175 = EDGE_LOOP ( 'NONE', ( #124 ) ) ;
#176 = LOCAL_TIME ( 11, 23, 10.00000000000000000, #139 ) ;
#177 = APPROVAL_ROLE ( '' ) ;
#178 = EDGE_LOOP ( 'NONE', ( #141 ) ) ;
#179 = EDGE_CURVE ( 'NONE', #205, #205, #182, .T. ) ;
#180 = EDGE_LOOP ( 'NONE', ( #123 ) ) ;
#181 = AXIS2_PLACEMENT_3D ( 'NONE', #21, #209, #6 ) ;
#182 = CIRCLE ( 'NONE', #107, 0.7249999999999999778 ) ;
#183 = DIRECTION ( 'NONE',  ( 3.491481338843133355E-15, -1.224646799147353207E-16, 1.000000000000000000 ) ) ;
#184 = PRODUCT_DEFINITION_SHAPE ( 'NONE', 'NONE',  #51 ) ;
#185 = DIRECTION ( 'NONE',  ( 4.293794133377662246E-31, 1.000000000000000000, 1.229791517316362484E-16 ) ) ;
#186 = APPROVAL ( #188, 'UNSPECIFIED' ) ;
#187 = DIRECTION ( 'NONE',  ( 3.491481338843133355E-15, -1.229791517316362731E-16, 1.000000000000000000 ) ) ;
#188 = APPROVAL_STATUS ( 'not_yet_approved' ) ;
#189 = AXIS2_PLACEMENT_3D ( 'NONE', #200, #9, #27 ) ;
#190 = DATE_AND_TIME ( #218, #25 ) ;
#191 =( LENGTH_UNIT ( ) NAMED_UNIT ( * ) SI_UNIT ( .MILLI., .METRE. ) );
#192 = APPROVAL ( #196, 'UNSPECIFIED' ) ;
#193 = ORIENTED_EDGE ( 'NONE', *, *, #172, .T. ) ;
#194 = EDGE_LOOP ( 'NONE', ( #18 ) ) ;
#195 = AXIS2_PLACEMENT_3D ( 'NONE', #199, #109, #132 ) ;
#196 = APPROVAL_STATUS ( 'not_yet_approved' ) ;
#197 = VERTEX_POINT ( 'NONE', #22 ) ;
#198 = ADVANCED_FACE ( 'NONE', ( #113, #3 ), #78, .T. ) ;
#199 = CARTESIAN_POINT ( 'NONE',  ( 3.910459099504309358E-14, 1.124819836996388827E-32, 11.19999999999999929 ) ) ;
#200 = CARTESIAN_POINT ( 'NONE',  ( 1.326762908760390423E-13, -4.653657836759941941E-15, 38.00000000000000000 ) ) ;
#201 = FACE_OUTER_BOUND ( 'NONE', #175, .T. ) ;
#202 = DIRECTION ( 'NONE',  ( -3.491481338843133355E-15, 1.224646799147353207E-16, -1.000000000000000000 ) ) ;
#203 = PERSON_AND_ORGANIZATION_ROLE ( 'classification_officer' ) ;
#204 = PERSON_AND_ORGANIZATION ( #222, #223 ) ;
#205 = VERTEX_POINT ( 'NONE', #48 ) ;
#206 = EDGE_LOOP ( 'NONE', ( #162 ) ) ;
#207 = EDGE_LOOP ( 'NONE', ( #61 ) ) ;
#208 = FACE_OUTER_BOUND ( 'NONE', #102, .T. ) ;
#209 = DIRECTION ( 'NONE',  ( -3.491481338843133355E-15, 1.224646799147353207E-16, -1.000000000000000000 ) ) ;
#210 = AXIS2_PLACEMENT_3D ( 'NONE', #163, #77, #147 ) ;
#211 = CIRCLE ( 'NONE', #58, 1.499999999999999778 ) ;
#212 = VERTEX_POINT ( 'NONE', #130 ) ;
#213 = MANIFOLD_SOLID_BREP ( 'Corps-Déplacer/Copier1[1]', #174 ) ;
#214 = DIRECTION ( 'NONE',  ( 0.0000000000000000000, 1.000000000000000000, 0.0000000000000000000 ) ) ;
#215 = FACE_OUTER_BOUND ( 'NONE', #38, .T. ) ;
#216 = SECURITY_CLASSIFICATION_LEVEL ( 'unclassified' ) ;
#217 = APPROVAL_PERSON_ORGANIZATION ( #15, #121, #169 ) ;
#218 = CALENDAR_DATE ( 2021, 28, 10 ) ;
#219 = CC_DESIGN_PERSON_AND_ORGANIZATION_ASSIGNMENT ( #152, #155, ( #156 ) ) ;
#220 = AXIS2_PLACEMENT_3D ( 'NONE', #8, #183, #80 ) ;
#221 = CARTESIAN_POINT ( 'NONE',  ( 0.0000000000000000000, 0.0000000000000000000, 0.0000000000000000000 ) ) ;
#222 = PERSON ( 'UNSPECIFIED', 'UNSPECIFIED', 'UNSPECIFIED', ('UNSPECIFIED'), ('UNSPECIFIED'), ('UNSPECIFIED') ) ;
#223 = ORGANIZATION ( 'UNSPECIFIED', 'UNSPECIFIED', '' ) ;
ENDSEC;
END-ISO-10303-21;
