ISO-10303-21;
HEADER;
FILE_DESCRIPTION (( 'STEP AP203' ),
    '1' );
FILE_NAME ('962932.step',
    '2021-10-28T09:23:09',
    ( '' ),
    ( '' ),
    'SwSTEP 2.0',
    'SolidWorks 2019',
    '' );
FILE_SCHEMA (( 'CONFIG_CONTROL_DESIGN' ));
ENDSEC;

DATA;
#1 = DIRECTION ( 'NONE',  ( -3.491481338843133355E-15, 1.224646799147353207E-16, -1.000000000000000000 ) ) ;
#2 =( NAMED_UNIT ( * ) SI_UNIT ( $, .STERADIAN. ) SOLID_ANGLE_UNIT ( ) );
#3 = DIRECTION ( 'NONE',  ( 0.0000000000000000000, 0.0000000000000000000, 1.000000000000000000 ) ) ;
#4 = COORDINATED_UNIVERSAL_TIME_OFFSET ( 1, 0, .AHEAD. ) ;
#5 = APPROVAL_PERSON_ORGANIZATION ( #175, #194, #102 ) ;
#6 = PERSON_AND_ORGANIZATION_ROLE ( 'creator' ) ;
#7 = PERSON ( 'UNSPECIFIED', 'UNSPECIFIED', 'UNSPECIFIED', ('UNSPECIFIED'), ('UNSPECIFIED'), ('UNSPECIFIED') ) ;
#8 = ORIENTED_EDGE ( 'NONE', *, *, #71, .F. ) ;
#9 = MANIFOLD_SOLID_BREP ( 'Corps-Déplacer/Copier1[2]', #146 ) ;
#10 = AXIS2_PLACEMENT_3D ( 'NONE', #186, #154, #24 ) ;
#11 = PLANE ( 'NONE',  #16 ) ;
#12 = LOCAL_TIME ( 11, 23, 9.000000000000000000, #142 ) ;
#13 = MANIFOLD_SOLID_BREP ( 'Corps-Déplacer/Copier1[1]', #189 ) ;
#14 = ORIENTED_EDGE ( 'NONE', *, *, #67, .T. ) ;
#15 = EDGE_LOOP ( 'NONE', ( #167 ) ) ;
#16 = AXIS2_PLACEMENT_3D ( 'NONE', #80, #112, #155 ) ;
#17 = AXIS2_PLACEMENT_3D ( 'NONE', #168, #38, #218 ) ;
#18 = FACE_OUTER_BOUND ( 'NONE', #15, .T. ) ;
#19 = ADVANCED_BREP_SHAPE_REPRESENTATION ( '962932', ( #13, #9, #164 ), #92 ) ;
#20 = DIRECTION ( 'NONE',  ( -3.491481338843133355E-15, 1.224646799147353207E-16, -1.000000000000000000 ) ) ;
#21 = DIRECTION ( 'NONE',  ( -3.491481338843133355E-15, 1.224646799147353207E-16, -1.000000000000000000 ) ) ;
#22 = APPROVAL_PERSON_ORGANIZATION ( #50, #140, #99 ) ;
#23 = CARTESIAN_POINT ( 'NONE',  ( 1.316288464743861212E-13, 1.499999999999995337, 37.69999999999999574 ) ) ;
#24 = DIRECTION ( 'NONE',  ( -5.135813185032644414E-31, -1.000000000000000000, -1.445602896647343601E-16 ) ) ;
#25 = CC_DESIGN_PERSON_AND_ORGANIZATION_ASSIGNMENT ( #47, #44, ( #72 ) ) ;
#26 = APPROVAL_STATUS ( 'not_yet_approved' ) ;
#27 = DATE_AND_TIME ( #143, #147 ) ;
#28 = CC_DESIGN_DATE_AND_TIME_ASSIGNMENT ( #101, #85, ( #70 ) ) ;
#29 = COORDINATED_UNIVERSAL_TIME_OFFSET ( 1, 0, .AHEAD. ) ;
#30 = PERSON_AND_ORGANIZATION_ROLE ( 'design_owner' ) ;
#31 = ADVANCED_FACE ( 'NONE', ( #57 ), #151, .T. ) ;
#32 = CIRCLE ( 'NONE', #104, 0.6999999999999949596 ) ;
#33 = DIRECTION ( 'NONE',  ( 1.000000000000000000, 0.0000000000000000000, 0.0000000000000000000 ) ) ;
#34 = DIRECTION ( 'NONE',  ( -4.275831445896958607E-31, -1.000000000000000000, -1.224646799147353207E-16 ) ) ;
#35 = ORIENTED_EDGE ( 'NONE', *, *, #119, .T. ) ;
#36 = CARTESIAN_POINT ( 'NONE',  ( 0.0000000000000000000, 0.0000000000000000000, 0.0000000000000000000 ) ) ;
#37 = CIRCLE ( 'NONE', #171, 0.6999999999999949596 ) ;
#38 = DIRECTION ( 'NONE',  ( 3.491481338843133355E-15, -1.229791517316362731E-16, 1.000000000000000000 ) ) ;
#39 = CARTESIAN_POINT ( 'NONE',  ( 3.910459099504309358E-14, 0.6999999999999936273, 11.19999999999999929 ) ) ;
#40 = DIRECTION ( 'NONE',  ( 4.275831445896958607E-31, 1.000000000000000000, 1.224646799147353207E-16 ) ) ;
#41 = AXIS2_PLACEMENT_3D ( 'NONE', #169, #20, #153 ) ;
#42 = FACE_OUTER_BOUND ( 'NONE', #93, .T. ) ;
#43 = COORDINATED_UNIVERSAL_TIME_OFFSET ( 1, 0, .AHEAD. ) ;
#44 = PERSON_AND_ORGANIZATION_ROLE ( 'classification_officer' ) ;
#45 = CIRCLE ( 'NONE', #75, 1.499999999999998668 ) ;
#46 = ADVANCED_FACE ( 'NONE', ( #103 ), #11, .F. ) ;
#47 = PERSON_AND_ORGANIZATION ( #7, #89 ) ;
#48 = APPLICATION_PROTOCOL_DEFINITION ( 'international standard', 'config_control_design', 1994, #201 ) ;
#49 = EDGE_CURVE ( 'NONE', #219, #219, #220, .T. ) ;
#50 = PERSON_AND_ORGANIZATION ( #7, #89 ) ;
#51 = AXIS2_PLACEMENT_3D ( 'NONE', #109, #208, #139 ) ;
#52 = ORIENTED_EDGE ( 'NONE', *, *, #119, .F. ) ;
#53 = EDGE_LOOP ( 'NONE', ( #132 ) ) ;
#54 = CC_DESIGN_PERSON_AND_ORGANIZATION_ASSIGNMENT ( #191, #6, ( #70 ) ) ;
#55 = ORIENTED_EDGE ( 'NONE', *, *, #222, .F. ) ;
#56 = ADVANCED_FACE ( 'NONE', ( #73, #125 ), #64, .T. ) ;
#57 = FACE_OUTER_BOUND ( 'NONE', #90, .T. ) ;
#58 = FACE_BOUND ( 'NONE', #181, .T. ) ;
#59 = FACE_OUTER_BOUND ( 'NONE', #215, .T. ) ;
#60 = CARTESIAN_POINT ( 'NONE',  ( 8.895566965843715197E-16, -3.120144876653136752E-17, 0.2547791639863431490 ) ) ;
#61 = DIRECTION ( 'NONE',  ( -3.491481338843133355E-15, 1.229791517316362731E-16, -1.000000000000000000 ) ) ;
#62 = PERSON_AND_ORGANIZATION ( #7, #89 ) ;
#63 = PERSON_AND_ORGANIZATION ( #7, #89 ) ;
#64 = CONICAL_SURFACE ( 'NONE', #163, 1.199999999999999956, 0.7853981633974453924 ) ;
#65 = LOCAL_TIME ( 11, 23, 9.000000000000000000, #43 ) ;
#66 = CALENDAR_DATE ( 2021, 28, 10 ) ;
#67 = EDGE_CURVE ( 'NONE', #206, #206, #37, .T. ) ;
#68 = ORIENTED_EDGE ( 'NONE', *, *, #203, .F. ) ;
#69 = EDGE_LOOP ( 'NONE', ( #14 ) ) ;
#70 = PRODUCT_DEFINITION ( 'UNKNOWN', '', #190, #184 ) ;
#71 = EDGE_CURVE ( 'NONE', #187, #187, #32, .T. ) ;
#72 = SECURITY_CLASSIFICATION ( '', '', #129 ) ;
#73 = FACE_OUTER_BOUND ( 'NONE', #106, .T. ) ;
#74 = DIRECTION ( 'NONE',  ( 0.0000000000000000000, 1.000000000000000000, 0.0000000000000000000 ) ) ;
#75 = AXIS2_PLACEMENT_3D ( 'NONE', #210, #111, #96 ) ;
#76 = LOCAL_TIME ( 11, 23, 9.000000000000000000, #29 ) ;
#77 = DIRECTION ( 'NONE',  ( -3.491481338843133355E-15, 1.229791517316362731E-16, -1.000000000000000000 ) ) ;
#78 = CC_DESIGN_PERSON_AND_ORGANIZATION_ASSIGNMENT ( #131, #114, ( #190 ) ) ;
#79 = DIRECTION ( 'NONE',  ( 4.275831445896958607E-31, 1.000000000000000000, 1.224646799147353207E-16 ) ) ;
#80 = CARTESIAN_POINT ( 'NONE',  ( 3.910459099504309358E-14, 1.124819836996388827E-32, 11.19999999999999929 ) ) ;
#81 = AXIS2_PLACEMENT_3D ( 'NONE', #94, #223, #79 ) ;
#82 = MECHANICAL_CONTEXT ( 'NONE', #201, 'mechanical' ) ;
#83 = APPLICATION_PROTOCOL_DEFINITION ( 'international standard', 'config_control_design', 1994, #122 ) ;
#84 = COORDINATED_UNIVERSAL_TIME_OFFSET ( 1, 0, .AHEAD. ) ;
#85 = DATE_TIME_ROLE ( 'creation_date' ) ;
#86 = ADVANCED_FACE ( 'NONE', ( #95 ), #178, .T. ) ;
#87 = CARTESIAN_POINT ( 'NONE',  ( 1.326762908760390423E-13, 1.199999999999995293, 38.00000000000000000 ) ) ;
#88 = AXIS2_PLACEMENT_3D ( 'NONE', #135, #77, #173 ) ;
#89 = ORGANIZATION ( 'UNSPECIFIED', 'UNSPECIFIED', '' ) ;
#90 = EDGE_LOOP ( 'NONE', ( #8 ) ) ;
#91 = UNCERTAINTY_MEASURE_WITH_UNIT (LENGTH_MEASURE( 1.000000000000000082E-05 ), #118, 'distance_accuracy_value', 'NONE');
#92 =( GEOMETRIC_REPRESENTATION_CONTEXT ( 3 ) GLOBAL_UNCERTAINTY_ASSIGNED_CONTEXT ( ( #91 ) ) GLOBAL_UNIT_ASSIGNED_CONTEXT ( ( #118, #158, #2 ) ) REPRESENTATION_CONTEXT ( 'NONE', 'WORKASPACE' ) );
#93 = EDGE_LOOP ( 'NONE', ( #68 ) ) ;
#94 = CARTESIAN_POINT ( 'NONE',  ( 0.0000000000000000000, 0.0000000000000000000, 0.0000000000000000000 ) ) ;
#95 = FACE_OUTER_BOUND ( 'NONE', #69, .T. ) ;
#96 = DIRECTION ( 'NONE',  ( 0.0000000000000000000, 1.000000000000000000, 0.0000000000000000000 ) ) ;
#97 = CARTESIAN_POINT ( 'NONE',  ( 4.952889959523606338E-14, 1.499999999999996891, 14.18564064605510744 ) ) ;
#98 = CARTESIAN_POINT ( 'NONE',  ( 1.326762908760390423E-13, 8.998558695971077224E-33, 38.00000000000000000 ) ) ;
#99 = APPROVAL_ROLE ( '' ) ;
#100 = PRODUCT_DEFINITION_SHAPE ( 'NONE', 'NONE',  #70 ) ;
#101 = DATE_AND_TIME ( #213, #76 ) ;
#102 = APPROVAL_ROLE ( '' ) ;
#103 = FACE_OUTER_BOUND ( 'NONE', #53, .T. ) ;
#104 = AXIS2_PLACEMENT_3D ( 'NONE', #108, #204, #74 ) ;
#105 = CALENDAR_DATE ( 2021, 28, 10 ) ;
#106 = EDGE_LOOP ( 'NONE', ( #52 ) ) ;
#107 = AXIS2_PLACEMENT_3D ( 'NONE', #36, #61, #128 ) ;
#108 = CARTESIAN_POINT ( 'NONE',  ( 3.910459099504309358E-14, -1.377366499394326377E-15, 11.19999999999999929 ) ) ;
#109 = CARTESIAN_POINT ( 'NONE',  ( 1.316288464743861212E-13, -4.616918432785521081E-15, 37.69999999999999574 ) ) ;
#110 = VERTEX_POINT ( 'NONE', #23 ) ;
#111 = DIRECTION ( 'NONE',  ( -3.491481338843133355E-15, 1.229791517316362731E-16, -1.000000000000000000 ) ) ;
#112 = DIRECTION ( 'NONE',  ( 3.491481338843133355E-15, -1.224646799147353207E-16, 1.000000000000000000 ) ) ;
#113 = PRODUCT ( '962932', '962932', '', ( #82 ) ) ;
#114 = PERSON_AND_ORGANIZATION_ROLE ( 'creator' ) ;
#115 = CARTESIAN_POINT ( 'NONE',  ( 0.0000000000000000000, 0.0000000000000000000, 0.0000000000000000000 ) ) ;
#116 = AXIS2_PLACEMENT_3D ( 'NONE', #98, #21, #40 ) ;
#117 = CC_DESIGN_SECURITY_CLASSIFICATION ( #72, ( #190 ) ) ;
#118 =( LENGTH_UNIT ( ) NAMED_UNIT ( * ) SI_UNIT ( .MILLI., .METRE. ) );
#119 = EDGE_CURVE ( 'NONE', #110, #110, #120, .T. ) ;
#120 = CIRCLE ( 'NONE', #51, 1.499999999999999778 ) ;
#121 = APPROVAL_DATE_TIME ( #162, #140 ) ;
#122 = APPLICATION_CONTEXT ( 'configuration controlled 3d designs of mechanical parts and assemblies' ) ;
#123 = CC_DESIGN_DATE_AND_TIME_ASSIGNMENT ( #195, #174, ( #72 ) ) ;
#124 = EDGE_LOOP ( 'NONE', ( #199 ) ) ;
#125 = FACE_BOUND ( 'NONE', #124, .T. ) ;
#126 = CARTESIAN_POINT ( 'NONE',  ( 8.895566965843711252E-16, -0.6999999999999949596, 0.2547791639863430380 ) ) ;
#127 = DIRECTION ( 'NONE',  ( 0.0000000000000000000, 1.000000000000000000, 0.0000000000000000000 ) ) ;
#128 = DIRECTION ( 'NONE',  ( 4.293794133377663121E-31, 1.000000000000000000, 1.229791517316362977E-16 ) ) ;
#129 = SECURITY_CLASSIFICATION_LEVEL ( 'unclassified' ) ;
#130 = APPROVAL_STATUS ( 'not_yet_approved' ) ;
#131 = PERSON_AND_ORGANIZATION ( #7, #89 ) ;
#132 = ORIENTED_EDGE ( 'NONE', *, *, #49, .T. ) ;
#133 = CC_DESIGN_APPROVAL ( #194, ( #70 ) ) ;
#134 = CARTESIAN_POINT ( 'NONE',  ( 1.326762908760390423E-13, -4.653657836759941941E-15, 38.00000000000000000 ) ) ;
#135 = CARTESIAN_POINT ( 'NONE',  ( 3.910459099504309358E-14, -1.377366499394326377E-15, 11.19999999999999929 ) ) ;
#136 = ADVANCED_FACE ( 'NONE', ( #42, #141 ), #221, .T. ) ;
#137 = PRODUCT_RELATED_PRODUCT_CATEGORY ( 'detail', '', ( #113 ) ) ;
#138 = FACE_OUTER_BOUND ( 'NONE', #183, .T. ) ;
#139 = DIRECTION ( 'NONE',  ( 0.0000000000000000000, 1.000000000000000000, 0.0000000000000000000 ) ) ;
#140 = APPROVAL ( #26, 'UNSPECIFIED' ) ;
#141 = FACE_OUTER_BOUND ( 'NONE', #198, .T. ) ;
#142 = COORDINATED_UNIVERSAL_TIME_OFFSET ( 1, 0, .AHEAD. ) ;
#143 = CALENDAR_DATE ( 2021, 28, 10 ) ;
#144 = CALENDAR_DATE ( 2021, 28, 10 ) ;
#145 = EDGE_LOOP ( 'NONE', ( #55 ) ) ;
#146 = CLOSED_SHELL ( 'NONE', ( #31, #166, #86 ) ) ;
#147 = LOCAL_TIME ( 11, 23, 9.000000000000000000, #84 ) ;
#148 = APPROVAL ( #130, 'UNSPECIFIED' ) ;
#149 = ORIENTED_EDGE ( 'NONE', *, *, #71, .T. ) ;
#150 = AXIS2_PLACEMENT_3D ( 'NONE', #217, #179, #34 ) ;
#151 = PLANE ( 'NONE',  #150 ) ;
#152 = FACE_OUTER_BOUND ( 'NONE', #145, .T. ) ;
#153 = DIRECTION ( 'NONE',  ( 0.0000000000000000000, 1.000000000000000000, 0.0000000000000000000 ) ) ;
#154 = DIRECTION ( 'NONE',  ( 3.491481338843133355E-15, -1.224646799147353207E-16, 1.000000000000000000 ) ) ;
#155 = DIRECTION ( 'NONE',  ( -4.275831445896958607E-31, -1.000000000000000000, -1.224646799147353207E-16 ) ) ;
#156 = CC_DESIGN_PERSON_AND_ORGANIZATION_ASSIGNMENT ( #62, #193, ( #190 ) ) ;
#157 = DIRECTION ( 'NONE',  ( -5.502656983963570796E-31, -1.000000000000000000, -1.548860246407874676E-16 ) ) ;
#158 =( NAMED_UNIT ( * ) PLANE_ANGLE_UNIT ( ) SI_UNIT ( $, .RADIAN. ) );
#159 = DATE_AND_TIME ( #66, #65 ) ;
#160 = VERTEX_POINT ( 'NONE', #87 ) ;
#161 = APPROVAL_STATUS ( 'not_yet_approved' ) ;
#162 = DATE_AND_TIME ( #105, #12 ) ;
#163 = AXIS2_PLACEMENT_3D ( 'NONE', #134, #185, #127 ) ;
#164 = AXIS2_PLACEMENT_3D ( 'NONE', #115, #3, #33 ) ;
#165 = ORIENTED_EDGE ( 'NONE', *, *, #49, .F. ) ;
#166 = ADVANCED_FACE ( 'NONE', ( #138, #18 ), #207, .T. ) ;
#167 = ORIENTED_EDGE ( 'NONE', *, *, #67, .F. ) ;
#168 = CARTESIAN_POINT ( 'NONE',  ( 4.952889959523606338E-14, -1.744538053421677964E-15, 14.18564064605510744 ) ) ;
#169 = CARTESIAN_POINT ( 'NONE',  ( 1.326762908760390423E-13, -4.653657836759941941E-15, 38.00000000000000000 ) ) ;
#170 = VERTEX_POINT ( 'NONE', #97 ) ;
#171 = AXIS2_PLACEMENT_3D ( 'NONE', #60, #1, #157 ) ;
#172 = CARTESIAN_POINT ( 'NONE',  ( 3.910459099504309358E-14, 0.6999999999999936273, 11.19999999999999929 ) ) ;
#173 = DIRECTION ( 'NONE',  ( 0.0000000000000000000, 1.000000000000000000, 0.0000000000000000000 ) ) ;
#174 = DATE_TIME_ROLE ( 'classification_date' ) ;
#175 = PERSON_AND_ORGANIZATION ( #7, #89 ) ;
#176 = CONICAL_SURFACE ( 'NONE', #17, 1.499999999999998668, 0.2617993877991500740 ) ;
#177 = APPROVAL_ROLE ( '' ) ;
#178 = CONICAL_SURFACE ( 'NONE', #10, 1.499999999999995559, 1.221730476396026388 ) ;
#179 = DIRECTION ( 'NONE',  ( 3.491481338843133355E-15, -1.224646799147353207E-16, 1.000000000000000000 ) ) ;
#180 = SHAPE_DEFINITION_REPRESENTATION ( #100, #19 ) ;
#181 = EDGE_LOOP ( 'NONE', ( #165 ) ) ;
#182 = ADVANCED_FACE ( 'NONE', ( #152 ), #188, .F. ) ;
#183 = EDGE_LOOP ( 'NONE', ( #149 ) ) ;
#184 = DESIGN_CONTEXT ( 'detailed design', #122, 'design' ) ;
#185 = DIRECTION ( 'NONE',  ( -3.491481338843133355E-15, 1.224646799147353207E-16, -1.000000000000000000 ) ) ;
#186 = CARTESIAN_POINT ( 'NONE',  ( 1.906192921252232855E-15, -6.686024735685322183E-17, 0.5459553513993090634 ) ) ;
#187 = VERTEX_POINT ( 'NONE', #39 ) ;
#188 = PLANE ( 'NONE',  #116 ) ;
#189 = CLOSED_SHELL ( 'NONE', ( #136, #56, #182, #214, #46 ) ) ;
#190 = PRODUCT_DEFINITION_FORMATION_WITH_SPECIFIED_SOURCE ( 'ANY', '', #113, .NOT_KNOWN. ) ;
#191 = PERSON_AND_ORGANIZATION ( #7, #89 ) ;
#192 = PERSON_AND_ORGANIZATION ( #7, #89 ) ;
#193 = PERSON_AND_ORGANIZATION_ROLE ( 'design_supplier' ) ;
#194 = APPROVAL ( #161, 'UNSPECIFIED' ) ;
#195 = DATE_AND_TIME ( #144, #200 ) ;
#196 = CC_DESIGN_PERSON_AND_ORGANIZATION_ASSIGNMENT ( #192, #30, ( #113 ) ) ;
#197 = CC_DESIGN_APPROVAL ( #140, ( #72 ) ) ;
#198 = EDGE_LOOP ( 'NONE', ( #35 ) ) ;
#199 = ORIENTED_EDGE ( 'NONE', *, *, #222, .T. ) ;
#200 = LOCAL_TIME ( 11, 23, 9.000000000000000000, #4 ) ;
#201 = APPLICATION_CONTEXT ( 'configuration controlled 3d designs of mechanical parts and assemblies' ) ;
#202 = ORIENTED_EDGE ( 'NONE', *, *, #203, .T. ) ;
#203 = EDGE_CURVE ( 'NONE', #170, #170, #45, .T. ) ;
#204 = DIRECTION ( 'NONE',  ( -3.491481338843133355E-15, 1.229791517316362731E-16, -1.000000000000000000 ) ) ;
#205 = APPROVAL_PERSON_ORGANIZATION ( #63, #148, #177 ) ;
#206 = VERTEX_POINT ( 'NONE', #126 ) ;
#207 = CYLINDRICAL_SURFACE ( 'NONE', #107, 0.6999999999999949596 ) ;
#208 = DIRECTION ( 'NONE',  ( -3.491481338843133355E-15, 1.224646799147353207E-16, -1.000000000000000000 ) ) ;
#209 = CC_DESIGN_APPROVAL ( #148, ( #190 ) ) ;
#210 = CARTESIAN_POINT ( 'NONE',  ( 4.952889959523606338E-14, -1.744538053421677964E-15, 14.18564064605510744 ) ) ;
#211 = APPROVAL_DATE_TIME ( #159, #148 ) ;
#212 = APPROVAL_DATE_TIME ( #27, #194 ) ;
#213 = CALENDAR_DATE ( 2021, 28, 10 ) ;
#214 = ADVANCED_FACE ( 'NONE', ( #58, #59 ), #176, .T. ) ;
#215 = EDGE_LOOP ( 'NONE', ( #202 ) ) ;
#216 = CIRCLE ( 'NONE', #41, 1.199999999999999956 ) ;
#217 = CARTESIAN_POINT ( 'NONE',  ( 3.910459099504309358E-14, 1.124819836996388827E-32, 11.19999999999999929 ) ) ;
#218 = DIRECTION ( 'NONE',  ( 0.0000000000000000000, -1.000000000000000000, 0.0000000000000000000 ) ) ;
#219 = VERTEX_POINT ( 'NONE', #172 ) ;
#220 = CIRCLE ( 'NONE', #88, 0.6999999999999949596 ) ;
#221 = CYLINDRICAL_SURFACE ( 'NONE', #81, 1.499999999999998224 ) ;
#222 = EDGE_CURVE ( 'NONE', #160, #160, #216, .T. ) ;
#223 = DIRECTION ( 'NONE',  ( -3.491481338843133355E-15, 1.224646799147353207E-16, -1.000000000000000000 ) ) ;
ENDSEC;
END-ISO-10303-21;
