ISO-10303-21;
HEADER;
FILE_DESCRIPTION (( 'STEP AP203' ),
    '1' );
FILE_NAME ('962931.step',
    '2021-10-28T09:23:09',
    ( '' ),
    ( '' ),
    'SwSTEP 2.0',
    'SolidWorks 2019',
    '' );
FILE_SCHEMA (( 'CONFIG_CONTROL_DESIGN' ));
ENDSEC;

DATA;
#1 = FACE_OUTER_BOUND ( 'NONE', #32, .T. ) ;
#2 = PERSON_AND_ORGANIZATION ( #49, #169 ) ;
#3 = CIRCLE ( 'NONE', #29, 0.6949999999999949551 ) ;
#4 = CARTESIAN_POINT ( 'NONE',  ( 1.326762908760390423E-13, -4.653657836759941941E-15, 38.00000000000000000 ) ) ;
#5 = PRODUCT_DEFINITION_SHAPE ( 'NONE', 'NONE',  #197 ) ;
#6 = DIRECTION ( 'NONE',  ( -3.491481338843133355E-15, 1.229791517316362731E-16, -1.000000000000000000 ) ) ;
#7 = DIRECTION ( 'NONE',  ( -3.491481338843133355E-15, 1.224646799147353207E-16, -1.000000000000000000 ) ) ;
#8 = LOCAL_TIME ( 11, 23, 9.000000000000000000, #155 ) ;
#9 = DIRECTION ( 'NONE',  ( -3.491481338843133355E-15, 1.224646799147353207E-16, -1.000000000000000000 ) ) ;
#10 = APPROVAL ( #142, 'UNSPECIFIED' ) ;
#11 = CARTESIAN_POINT ( 'NONE',  ( 3.910459099504309358E-14, 1.124819836996388827E-32, 11.19999999999999929 ) ) ;
#12 = DATE_TIME_ROLE ( 'creation_date' ) ;
#13 = ADVANCED_FACE ( 'NONE', ( #1, #148 ), #92, .T. ) ;
#14 = DATE_AND_TIME ( #170, #173 ) ;
#15 = PERSON_AND_ORGANIZATION ( #49, #169 ) ;
#16 = CC_DESIGN_SECURITY_CLASSIFICATION ( #82, ( #56 ) ) ;
#17 = EDGE_LOOP ( 'NONE', ( #161 ) ) ;
#18 = APPROVAL_PERSON_ORGANIZATION ( #46, #134, #219 ) ;
#19 = EDGE_LOOP ( 'NONE', ( #53 ) ) ;
#20 = DIRECTION ( 'NONE',  ( 0.0000000000000000000, 1.000000000000000000, 0.0000000000000000000 ) ) ;
#21 = CARTESIAN_POINT ( 'NONE',  ( 3.910459099504309358E-14, -1.377366499394326377E-15, 11.19999999999999929 ) ) ;
#22 = CARTESIAN_POINT ( 'NONE',  ( 1.326762908760390423E-13, -4.653657836759941941E-15, 38.00000000000000000 ) ) ;
#23 = APPROVAL ( #191, 'UNSPECIFIED' ) ;
#24 = CIRCLE ( 'NONE', #221, 1.499999999999998668 ) ;
#25 =( GEOMETRIC_REPRESENTATION_CONTEXT ( 3 ) GLOBAL_UNCERTAINTY_ASSIGNED_CONTEXT ( ( #74 ) ) GLOBAL_UNIT_ASSIGNED_CONTEXT ( ( #28, #202, #31 ) ) REPRESENTATION_CONTEXT ( 'NONE', 'WORKASPACE' ) );
#26 = DIRECTION ( 'NONE',  ( 4.275831445896958607E-31, 1.000000000000000000, 1.224646799147353207E-16 ) ) ;
#27 = PLANE ( 'NONE',  #220 ) ;
#28 =( LENGTH_UNIT ( ) NAMED_UNIT ( * ) SI_UNIT ( .MILLI., .METRE. ) );
#29 = AXIS2_PLACEMENT_3D ( 'NONE', #21, #94, #154 ) ;
#30 = PERSON_AND_ORGANIZATION ( #49, #169 ) ;
#31 =( NAMED_UNIT ( * ) SI_UNIT ( $, .STERADIAN. ) SOLID_ANGLE_UNIT ( ) );
#32 = EDGE_LOOP ( 'NONE', ( #195 ) ) ;
#33 = ORIENTED_EDGE ( 'NONE', *, *, #189, .T. ) ;
#34 = AXIS2_PLACEMENT_3D ( 'NONE', #131, #96, #26 ) ;
#35 = EDGE_LOOP ( 'NONE', ( #33 ) ) ;
#36 = VERTEX_POINT ( 'NONE', #111 ) ;
#37 = FACE_BOUND ( 'NONE', #129, .T. ) ;
#38 = CC_DESIGN_DATE_AND_TIME_ASSIGNMENT ( #14, #12, ( #197 ) ) ;
#39 = CARTESIAN_POINT ( 'NONE',  ( 3.910459099504309358E-14, -1.377366499394326377E-15, 11.19999999999999929 ) ) ;
#40 = FACE_BOUND ( 'NONE', #128, .T. ) ;
#41 = CARTESIAN_POINT ( 'NONE',  ( 3.910459099504309358E-14, 0.6949999999999936229, 11.19999999999999929 ) ) ;
#42 = CC_DESIGN_PERSON_AND_ORGANIZATION_ASSIGNMENT ( #15, #70, ( #56 ) ) ;
#43 = CALENDAR_DATE ( 2021, 28, 10 ) ;
#44 = APPROVAL_STATUS ( 'not_yet_approved' ) ;
#45 = APPROVAL_DATE_TIME ( #158, #10 ) ;
#46 = PERSON_AND_ORGANIZATION ( #49, #169 ) ;
#47 = CC_DESIGN_PERSON_AND_ORGANIZATION_ASSIGNMENT ( #205, #184, ( #91 ) ) ;
#48 = MECHANICAL_CONTEXT ( 'NONE', #209, 'mechanical' ) ;
#49 = PERSON ( 'UNSPECIFIED', 'UNSPECIFIED', 'UNSPECIFIED', ('UNSPECIFIED'), ('UNSPECIFIED'), ('UNSPECIFIED') ) ;
#50 = CLOSED_SHELL ( 'NONE', ( #87, #13, #101 ) ) ;
#51 = AXIS2_PLACEMENT_3D ( 'NONE', #39, #6, #20 ) ;
#52 = EDGE_CURVE ( 'NONE', #135, #135, #110, .T. ) ;
#53 = ORIENTED_EDGE ( 'NONE', *, *, #189, .F. ) ;
#54 = MANIFOLD_SOLID_BREP ( 'Corps-Déplacer/Copier1[1]', #117 ) ;
#55 = EDGE_LOOP ( 'NONE', ( #160 ) ) ;
#56 = PRODUCT_DEFINITION_FORMATION_WITH_SPECIFIED_SOURCE ( 'ANY', '', #91, .NOT_KNOWN. ) ;
#57 = ORIENTED_EDGE ( 'NONE', *, *, #116, .F. ) ;
#58 = ADVANCED_FACE ( 'NONE', ( #93, #40 ), #185, .T. ) ;
#59 = CARTESIAN_POINT ( 'NONE',  ( 3.910459099504309358E-14, 0.6949999999999936229, 11.19999999999999929 ) ) ;
#60 = CYLINDRICAL_SURFACE ( 'NONE', #34, 1.499999999999998224 ) ;
#61 = APPROVAL_PERSON_ORGANIZATION ( #83, #10, #171 ) ;
#62 = CC_DESIGN_PERSON_AND_ORGANIZATION_ASSIGNMENT ( #206, #217, ( #82 ) ) ;
#63 = FACE_OUTER_BOUND ( 'NONE', #55, .T. ) ;
#64 = CARTESIAN_POINT ( 'NONE',  ( 1.326762908760390423E-13, 1.199999999999995293, 38.00000000000000000 ) ) ;
#65 = AXIS2_PLACEMENT_3D ( 'NONE', #216, #9, #149 ) ;
#66 = VERTEX_POINT ( 'NONE', #144 ) ;
#67 = DATE_AND_TIME ( #43, #118 ) ;
#68 = AXIS2_PLACEMENT_3D ( 'NONE', #198, #119, #168 ) ;
#69 = CALENDAR_DATE ( 2021, 28, 10 ) ;
#70 = PERSON_AND_ORGANIZATION_ROLE ( 'creator' ) ;
#71 = ORIENTED_EDGE ( 'NONE', *, *, #52, .F. ) ;
#72 = ORIENTED_EDGE ( 'NONE', *, *, #203, .F. ) ;
#73 = CC_DESIGN_PERSON_AND_ORGANIZATION_ASSIGNMENT ( #186, #141, ( #197 ) ) ;
#74 = UNCERTAINTY_MEASURE_WITH_UNIT (LENGTH_MEASURE( 1.000000000000000082E-05 ), #28, 'distance_accuracy_value', 'NONE');
#75 = DIRECTION ( 'NONE',  ( -4.275831445896958607E-31, -1.000000000000000000, -1.224646799147353207E-16 ) ) ;
#76 = FACE_OUTER_BOUND ( 'NONE', #192, .T. ) ;
#77 = CC_DESIGN_DATE_AND_TIME_ASSIGNMENT ( #139, #120, ( #82 ) ) ;
#78 = DIRECTION ( 'NONE',  ( 4.275831445896958607E-31, 1.000000000000000000, 1.224646799147353207E-16 ) ) ;
#79 = DIRECTION ( 'NONE',  ( 0.0000000000000000000, 1.000000000000000000, 0.0000000000000000000 ) ) ;
#80 = FACE_OUTER_BOUND ( 'NONE', #35, .T. ) ;
#81 = CC_DESIGN_PERSON_AND_ORGANIZATION_ASSIGNMENT ( #30, #145, ( #56 ) ) ;
#82 = SECURITY_CLASSIFICATION ( '', '', #102 ) ;
#83 = PERSON_AND_ORGANIZATION ( #49, #169 ) ;
#84 = EDGE_CURVE ( 'NONE', #196, #196, #99, .T. ) ;
#85 = CARTESIAN_POINT ( 'NONE',  ( 4.959405152398726534E-14, 1.499999999999996891, 14.20430090009295299 ) ) ;
#86 = CC_DESIGN_APPROVAL ( #134, ( #197 ) ) ;
#87 = ADVANCED_FACE ( 'NONE', ( #76 ), #165, .T. ) ;
#88 = COORDINATED_UNIVERSAL_TIME_OFFSET ( 1, 0, .AHEAD. ) ;
#89 = CONICAL_SURFACE ( 'NONE', #193, 1.499999999999998668, 0.2617993877991500740 ) ;
#90 = DATE_AND_TIME ( #208, #207 ) ;
#91 = PRODUCT ( '962931', '962931', '', ( #48 ) ) ;
#92 = CYLINDRICAL_SURFACE ( 'NONE', #143, 0.6949999999999949551 ) ;
#93 = FACE_OUTER_BOUND ( 'NONE', #175, .T. ) ;
#94 = DIRECTION ( 'NONE',  ( -3.491481338843133355E-15, 1.229791517316362731E-16, -1.000000000000000000 ) ) ;
#95 = DIRECTION ( 'NONE',  ( 3.491481338843133355E-15, -1.229791517316362731E-16, 1.000000000000000000 ) ) ;
#96 = DIRECTION ( 'NONE',  ( -3.491481338843133355E-15, 1.224646799147353207E-16, -1.000000000000000000 ) ) ;
#97 = ADVANCED_FACE ( 'NONE', ( #114, #212 ), #60, .T. ) ;
#98 = DIRECTION ( 'NONE',  ( -3.491481338843133355E-15, 1.229791517316362731E-16, -1.000000000000000000 ) ) ;
#99 = CIRCLE ( 'NONE', #104, 1.199999999999999956 ) ;
#100 = COORDINATED_UNIVERSAL_TIME_OFFSET ( 1, 0, .AHEAD. ) ;
#101 = ADVANCED_FACE ( 'NONE', ( #63 ), #138, .T. ) ;
#102 = SECURITY_CLASSIFICATION_LEVEL ( 'unclassified' ) ;
#103 = APPLICATION_PROTOCOL_DEFINITION ( 'international standard', 'config_control_design', 1994, #209 ) ;
#104 = AXIS2_PLACEMENT_3D ( 'NONE', #22, #151, #79 ) ;
#105 = APPROVAL_ROLE ( '' ) ;
#106 = AXIS2_PLACEMENT_3D ( 'NONE', #4, #113, #180 ) ;
#107 = DIRECTION ( 'NONE',  ( -3.491481338843133355E-15, 1.229791517316362731E-16, -1.000000000000000000 ) ) ;
#108 = ADVANCED_FACE ( 'NONE', ( #37, #80 ), #89, .T. ) ;
#109 = ORIENTED_EDGE ( 'NONE', *, *, #140, .F. ) ;
#110 = CIRCLE ( 'NONE', #51, 0.6949999999999949551 ) ;
#111 = CARTESIAN_POINT ( 'NONE',  ( 8.832027201801967725E-16, -0.6949999999999949551, 0.2529593128150119385 ) ) ;
#112 = CC_DESIGN_APPROVAL ( #23, ( #82 ) ) ;
#113 = DIRECTION ( 'NONE',  ( -3.491481338843133355E-15, 1.224646799147353207E-16, -1.000000000000000000 ) ) ;
#114 = FACE_OUTER_BOUND ( 'NONE', #19, .T. ) ;
#115 = DIRECTION ( 'NONE',  ( -3.491481338843133355E-15, 1.224646799147353207E-16, -1.000000000000000000 ) ) ;
#116 = EDGE_CURVE ( 'NONE', #137, #137, #3, .T. ) ;
#117 = CLOSED_SHELL ( 'NONE', ( #97, #58, #164, #108, #176 ) ) ;
#118 = LOCAL_TIME ( 11, 23, 9.000000000000000000, #100 ) ;
#119 = DIRECTION ( 'NONE',  ( 3.491481338843133355E-15, -1.224646799147353207E-16, 1.000000000000000000 ) ) ;
#120 = DATE_TIME_ROLE ( 'classification_date' ) ;
#121 = AXIS2_PLACEMENT_3D ( 'NONE', #201, #7, #78 ) ;
#122 = CARTESIAN_POINT ( 'NONE',  ( 0.0000000000000000000, 0.0000000000000000000, 0.0000000000000000000 ) ) ;
#123 = APPLICATION_PROTOCOL_DEFINITION ( 'international standard', 'config_control_design', 1994, #172 ) ;
#124 = COORDINATED_UNIVERSAL_TIME_OFFSET ( 1, 0, .AHEAD. ) ;
#125 = APPROVAL_DATE_TIME ( #90, #23 ) ;
#126 = CARTESIAN_POINT ( 'NONE',  ( 0.0000000000000000000, 0.0000000000000000000, 0.0000000000000000000 ) ) ;
#127 = CIRCLE ( 'NONE', #213, 0.6949999999999949551 ) ;
#128 = EDGE_LOOP ( 'NONE', ( #194 ) ) ;
#129 = EDGE_LOOP ( 'NONE', ( #57 ) ) ;
#130 = DIRECTION ( 'NONE',  ( -4.275831445896958607E-31, -1.000000000000000000, -1.224646799147353207E-16 ) ) ;
#131 = CARTESIAN_POINT ( 'NONE',  ( 0.0000000000000000000, 0.0000000000000000000, 0.0000000000000000000 ) ) ;
#132 = APPROVAL_PERSON_ORGANIZATION ( #2, #23, #105 ) ;
#133 = CARTESIAN_POINT ( 'NONE',  ( 3.910459099504309358E-14, 1.124819836996388827E-32, 11.19999999999999929 ) ) ;
#134 = APPROVAL ( #44, 'UNSPECIFIED' ) ;
#135 = VERTEX_POINT ( 'NONE', #59 ) ;
#136 = MANIFOLD_SOLID_BREP ( 'Corps-Déplacer/Copier1[2]', #50 ) ;
#137 = VERTEX_POINT ( 'NONE', #41 ) ;
#138 = CONICAL_SURFACE ( 'NONE', #68, 1.499999999999995559, 1.221730476396026388 ) ;
#139 = DATE_AND_TIME ( #183, #8 ) ;
#140 = EDGE_CURVE ( 'NONE', #36, #36, #127, .T. ) ;
#141 = PERSON_AND_ORGANIZATION_ROLE ( 'creator' ) ;
#142 = APPROVAL_STATUS ( 'not_yet_approved' ) ;
#143 = AXIS2_PLACEMENT_3D ( 'NONE', #126, #107, #174 ) ;
#144 = CARTESIAN_POINT ( 'NONE',  ( 1.316288464743861212E-13, 1.499999999999995337, 37.69999999999999574 ) ) ;
#145 = PERSON_AND_ORGANIZATION_ROLE ( 'design_supplier' ) ;
#146 = ADVANCED_BREP_SHAPE_REPRESENTATION ( '962931', ( #54, #136, #157 ), #25 ) ;
#147 = EDGE_LOOP ( 'NONE', ( #163 ) ) ;
#148 = FACE_OUTER_BOUND ( 'NONE', #177, .T. ) ;
#149 = DIRECTION ( 'NONE',  ( 0.0000000000000000000, 1.000000000000000000, 0.0000000000000000000 ) ) ;
#150 = DIRECTION ( 'NONE',  ( 3.491481338843133355E-15, -1.224646799147353207E-16, 1.000000000000000000 ) ) ;
#151 = DIRECTION ( 'NONE',  ( -3.491481338843133355E-15, 1.224646799147353207E-16, -1.000000000000000000 ) ) ;
#152 = PRODUCT_RELATED_PRODUCT_CATEGORY ( 'detail', '', ( #91 ) ) ;
#153 = CARTESIAN_POINT ( 'NONE',  ( 4.959405152398726534E-14, -1.746832875634348990E-15, 14.20430090009295299 ) ) ;
#154 = DIRECTION ( 'NONE',  ( 0.0000000000000000000, 1.000000000000000000, 0.0000000000000000000 ) ) ;
#155 = COORDINATED_UNIVERSAL_TIME_OFFSET ( 1, 0, .AHEAD. ) ;
#156 = DIRECTION ( 'NONE',  ( 1.000000000000000000, 0.0000000000000000000, 0.0000000000000000000 ) ) ;
#157 = AXIS2_PLACEMENT_3D ( 'NONE', #122, #187, #156 ) ;
#158 = DATE_AND_TIME ( #69, #218 ) ;
#159 = SHAPE_DEFINITION_REPRESENTATION ( #5, #146 ) ;
#160 = ORIENTED_EDGE ( 'NONE', *, *, #140, .T. ) ;
#161 = ORIENTED_EDGE ( 'NONE', *, *, #84, .F. ) ;
#162 = DESIGN_CONTEXT ( 'detailed design', #172, 'design' ) ;
#163 = ORIENTED_EDGE ( 'NONE', *, *, #116, .T. ) ;
#164 = ADVANCED_FACE ( 'NONE', ( #214 ), #166, .F. ) ;
#165 = PLANE ( 'NONE',  #178 ) ;
#166 = PLANE ( 'NONE',  #121 ) ;
#167 = CARTESIAN_POINT ( 'NONE',  ( 8.832027201801971669E-16, -3.097858127534185120E-17, 0.2529593128150120496 ) ) ;
#168 = DIRECTION ( 'NONE',  ( -5.135813185032644414E-31, -1.000000000000000000, -1.445602896647343601E-16 ) ) ;
#169 = ORGANIZATION ( 'UNSPECIFIED', 'UNSPECIFIED', '' ) ;
#170 = CALENDAR_DATE ( 2021, 28, 10 ) ;
#171 = APPROVAL_ROLE ( '' ) ;
#172 = APPLICATION_CONTEXT ( 'configuration controlled 3d designs of mechanical parts and assemblies' ) ;
#173 = LOCAL_TIME ( 11, 23, 9.000000000000000000, #124 ) ;
#174 = DIRECTION ( 'NONE',  ( 4.293794133377663121E-31, 1.000000000000000000, 1.229791517316362731E-16 ) ) ;
#175 = EDGE_LOOP ( 'NONE', ( #72 ) ) ;
#176 = ADVANCED_FACE ( 'NONE', ( #182 ), #27, .F. ) ;
#177 = EDGE_LOOP ( 'NONE', ( #109 ) ) ;
#178 = AXIS2_PLACEMENT_3D ( 'NONE', #11, #150, #130 ) ;
#179 = CC_DESIGN_APPROVAL ( #10, ( #56 ) ) ;
#180 = DIRECTION ( 'NONE',  ( 0.0000000000000000000, 1.000000000000000000, 0.0000000000000000000 ) ) ;
#181 = DIRECTION ( 'NONE',  ( 0.0000000000000000000, -1.000000000000000000, 0.0000000000000000000 ) ) ;
#182 = FACE_OUTER_BOUND ( 'NONE', #147, .T. ) ;
#183 = CALENDAR_DATE ( 2021, 28, 10 ) ;
#184 = PERSON_AND_ORGANIZATION_ROLE ( 'design_owner' ) ;
#185 = CONICAL_SURFACE ( 'NONE', #106, 1.199999999999999956, 0.7853981633974453924 ) ;
#186 = PERSON_AND_ORGANIZATION ( #49, #169 ) ;
#187 = DIRECTION ( 'NONE',  ( 0.0000000000000000000, 0.0000000000000000000, 1.000000000000000000 ) ) ;
#188 = VERTEX_POINT ( 'NONE', #85 ) ;
#189 = EDGE_CURVE ( 'NONE', #188, #188, #24, .T. ) ;
#190 = ORIENTED_EDGE ( 'NONE', *, *, #203, .T. ) ;
#191 = APPROVAL_STATUS ( 'not_yet_approved' ) ;
#192 = EDGE_LOOP ( 'NONE', ( #71 ) ) ;
#193 = AXIS2_PLACEMENT_3D ( 'NONE', #153, #95, #181 ) ;
#194 = ORIENTED_EDGE ( 'NONE', *, *, #84, .T. ) ;
#195 = ORIENTED_EDGE ( 'NONE', *, *, #52, .T. ) ;
#196 = VERTEX_POINT ( 'NONE', #64 ) ;
#197 = PRODUCT_DEFINITION ( 'UNKNOWN', '', #56, #162 ) ;
#198 = CARTESIAN_POINT ( 'NONE',  ( 1.906192921252232855E-15, -6.686024735685322183E-17, 0.5459553513993090634 ) ) ;
#199 = DIRECTION ( 'NONE',  ( 0.0000000000000000000, 1.000000000000000000, 0.0000000000000000000 ) ) ;
#200 = DIRECTION ( 'NONE',  ( 3.491481338843133355E-15, -1.224646799147353207E-16, 1.000000000000000000 ) ) ;
#201 = CARTESIAN_POINT ( 'NONE',  ( 1.326762908760390423E-13, 8.998558695971077224E-33, 38.00000000000000000 ) ) ;
#202 =( NAMED_UNIT ( * ) PLANE_ANGLE_UNIT ( ) SI_UNIT ( $, .RADIAN. ) );
#203 = EDGE_CURVE ( 'NONE', #66, #66, #223, .T. ) ;
#204 = COORDINATED_UNIVERSAL_TIME_OFFSET ( 1, 0, .AHEAD. ) ;
#205 = PERSON_AND_ORGANIZATION ( #49, #169 ) ;
#206 = PERSON_AND_ORGANIZATION ( #49, #169 ) ;
#207 = LOCAL_TIME ( 11, 23, 9.000000000000000000, #88 ) ;
#208 = CALENDAR_DATE ( 2021, 28, 10 ) ;
#209 = APPLICATION_CONTEXT ( 'configuration controlled 3d designs of mechanical parts and assemblies' ) ;
#210 = EDGE_LOOP ( 'NONE', ( #190 ) ) ;
#211 = CARTESIAN_POINT ( 'NONE',  ( 4.959405152398726534E-14, -1.746832875634348990E-15, 14.20430090009295299 ) ) ;
#212 = FACE_OUTER_BOUND ( 'NONE', #210, .T. ) ;
#213 = AXIS2_PLACEMENT_3D ( 'NONE', #167, #115, #215 ) ;
#214 = FACE_OUTER_BOUND ( 'NONE', #17, .T. ) ;
#215 = DIRECTION ( 'NONE',  ( -5.542244444279855610E-31, -1.000000000000000000, -1.560003125878434963E-16 ) ) ;
#216 = CARTESIAN_POINT ( 'NONE',  ( 1.316288464743861212E-13, -4.616918432785521081E-15, 37.69999999999999574 ) ) ;
#217 = PERSON_AND_ORGANIZATION_ROLE ( 'classification_officer' ) ;
#218 = LOCAL_TIME ( 11, 23, 9.000000000000000000, #204 ) ;
#219 = APPROVAL_ROLE ( '' ) ;
#220 = AXIS2_PLACEMENT_3D ( 'NONE', #133, #200, #75 ) ;
#221 = AXIS2_PLACEMENT_3D ( 'NONE', #211, #98, #199 ) ;
#222 = APPROVAL_DATE_TIME ( #67, #134 ) ;
#223 = CIRCLE ( 'NONE', #65, 1.499999999999999778 ) ;
ENDSEC;
END-ISO-10303-21;
