ISO-10303-21;
HEADER;
FILE_DESCRIPTION (( 'STEP AP203' ),
    '1' );
FILE_NAME ('962930.step',
    '2021-10-28T09:23:08',
    ( '' ),
    ( '' ),
    'SwSTEP 2.0',
    'SolidWorks 2019',
    '' );
FILE_SCHEMA (( 'CONFIG_CONTROL_DESIGN' ));
ENDSEC;

DATA;
#1 = APPROVAL_DATE_TIME ( #134, #10 ) ;
#2 = DATE_AND_TIME ( #82, #49 ) ;
#3 = ORIENTED_EDGE ( 'NONE', *, *, #73, .F. ) ;
#4 = APPROVAL_STATUS ( 'not_yet_approved' ) ;
#5 = EDGE_LOOP ( 'NONE', ( #136 ) ) ;
#6 = EDGE_CURVE ( 'NONE', #39, #39, #188, .T. ) ;
#7 = APPROVAL_ROLE ( '' ) ;
#8 = CARTESIAN_POINT ( 'NONE',  ( 1.326762908760390423E-13, -4.653657836759941941E-15, 38.00000000000000000 ) ) ;
#9 = CARTESIAN_POINT ( 'NONE',  ( 8.768487437760231100E-16, -3.075571378415234103E-17, 0.2511394616436810057 ) ) ;
#10 = APPROVAL ( #153, 'UNSPECIFIED' ) ;
#11 = PLANE ( 'NONE',  #116 ) ;
#12 = CARTESIAN_POINT ( 'NONE',  ( 3.910459099504309358E-14, 0.6899999999999936184, 11.19999999999999929 ) ) ;
#13 = DIRECTION ( 'NONE',  ( 3.491481338843133355E-15, -1.224646799147353207E-16, 1.000000000000000000 ) ) ;
#14 = CC_DESIGN_APPROVAL ( #114, ( #117 ) ) ;
#15 = CC_DESIGN_PERSON_AND_ORGANIZATION_ASSIGNMENT ( #93, #165, ( #76 ) ) ;
#16 = CARTESIAN_POINT ( 'NONE',  ( 0.0000000000000000000, 0.0000000000000000000, 0.0000000000000000000 ) ) ;
#17 = PERSON_AND_ORGANIZATION ( #60, #184 ) ;
#18 = COORDINATED_UNIVERSAL_TIME_OFFSET ( 1, 0, .AHEAD. ) ;
#19 = COORDINATED_UNIVERSAL_TIME_OFFSET ( 1, 0, .AHEAD. ) ;
#20 = DATE_AND_TIME ( #194, #206 ) ;
#21 = AXIS2_PLACEMENT_3D ( 'NONE', #107, #178, #74 ) ;
#22 = LOCAL_TIME ( 11, 23, 8.000000000000000000, #186 ) ;
#23 = EDGE_LOOP ( 'NONE', ( #67 ) ) ;
#24 = EDGE_LOOP ( 'NONE', ( #84 ) ) ;
#25 = FACE_OUTER_BOUND ( 'NONE', #216, .T. ) ;
#26 = CONICAL_SURFACE ( 'NONE', #34, 1.499999999999998668, 0.2617993877991500740 ) ;
#27 = FACE_OUTER_BOUND ( 'NONE', #99, .T. ) ;
#28 = DIRECTION ( 'NONE',  ( 3.491481338843133355E-15, -1.229791517316362731E-16, 1.000000000000000000 ) ) ;
#29 = VERTEX_POINT ( 'NONE', #208 ) ;
#30 = FACE_OUTER_BOUND ( 'NONE', #192, .T. ) ;
#31 = APPROVAL_STATUS ( 'not_yet_approved' ) ;
#32 = APPLICATION_PROTOCOL_DEFINITION ( 'international standard', 'config_control_design', 1994, #131 ) ;
#33 = CLOSED_SHELL ( 'NONE', ( #129, #176, #212, #137, #148 ) ) ;
#34 = AXIS2_PLACEMENT_3D ( 'NONE', #203, #28, #42 ) ;
#35 = PERSON_AND_ORGANIZATION ( #60, #184 ) ;
#36 = ORIENTED_EDGE ( 'NONE', *, *, #171, .T. ) ;
#37 = EDGE_LOOP ( 'NONE', ( #140 ) ) ;
#38 = EDGE_LOOP ( 'NONE', ( #102 ) ) ;
#39 = VERTEX_POINT ( 'NONE', #161 ) ;
#40 = DIRECTION ( 'NONE',  ( -3.491481338843133355E-15, 1.229791517316362731E-16, -1.000000000000000000 ) ) ;
#41 = DIRECTION ( 'NONE',  ( 0.0000000000000000000, 1.000000000000000000, 0.0000000000000000000 ) ) ;
#42 = DIRECTION ( 'NONE',  ( 0.0000000000000000000, -1.000000000000000000, 0.0000000000000000000 ) ) ;
#43 = CARTESIAN_POINT ( 'NONE',  ( 1.326762908760390423E-13, -4.653657836759941941E-15, 38.00000000000000000 ) ) ;
#44 = PERSON_AND_ORGANIZATION_ROLE ( 'classification_officer' ) ;
#45 = CC_DESIGN_PERSON_AND_ORGANIZATION_ASSIGNMENT ( #47, #150, ( #52 ) ) ;
#46 = PRODUCT_DEFINITION_SHAPE ( 'NONE', 'NONE',  #94 ) ;
#47 = PERSON_AND_ORGANIZATION ( #60, #184 ) ;
#48 = APPROVAL ( #31, 'UNSPECIFIED' ) ;
#49 = LOCAL_TIME ( 11, 23, 8.000000000000000000, #190 ) ;
#50 = CC_DESIGN_DATE_AND_TIME_ASSIGNMENT ( #152, #169, ( #94 ) ) ;
#51 = DIRECTION ( 'NONE',  ( 0.0000000000000000000, 1.000000000000000000, 0.0000000000000000000 ) ) ;
#52 = PRODUCT ( '962930', '962930', '', ( #207 ) ) ;
#53 =( GEOMETRIC_REPRESENTATION_CONTEXT ( 3 ) GLOBAL_UNCERTAINTY_ASSIGNED_CONTEXT ( ( #209 ) ) GLOBAL_UNIT_ASSIGNED_CONTEXT ( ( #130, #210, #61 ) ) REPRESENTATION_CONTEXT ( 'NONE', 'WORKASPACE' ) );
#54 = CYLINDRICAL_SURFACE ( 'NONE', #173, 0.6899999999999949507 ) ;
#55 = DIRECTION ( 'NONE',  ( -3.491481338843133355E-15, 1.229791517316362731E-16, -1.000000000000000000 ) ) ;
#56 = CARTESIAN_POINT ( 'NONE',  ( 0.0000000000000000000, 0.0000000000000000000, 0.0000000000000000000 ) ) ;
#57 = CIRCLE ( 'NONE', #189, 1.499999999999998668 ) ;
#58 = FACE_BOUND ( 'NONE', #156, .T. ) ;
#59 = DIRECTION ( 'NONE',  ( -3.491481338843133355E-15, 1.224646799147353207E-16, -1.000000000000000000 ) ) ;
#60 = PERSON ( 'UNSPECIFIED', 'UNSPECIFIED', 'UNSPECIFIED', ('UNSPECIFIED'), ('UNSPECIFIED'), ('UNSPECIFIED') ) ;
#61 =( NAMED_UNIT ( * ) SI_UNIT ( $, .STERADIAN. ) SOLID_ANGLE_UNIT ( ) );
#62 = PERSON_AND_ORGANIZATION ( #60, #184 ) ;
#63 = ADVANCED_FACE ( 'NONE', ( #213 ), #120, .T. ) ;
#64 = CALENDAR_DATE ( 2021, 28, 10 ) ;
#65 = CC_DESIGN_APPROVAL ( #48, ( #94 ) ) ;
#66 = ORIENTED_EDGE ( 'NONE', *, *, #154, .T. ) ;
#67 = ORIENTED_EDGE ( 'NONE', *, *, #6, .T. ) ;
#68 = EDGE_LOOP ( 'NONE', ( #3 ) ) ;
#69 = DIRECTION ( 'NONE',  ( 0.0000000000000000000, 1.000000000000000000, 0.0000000000000000000 ) ) ;
#70 = APPROVAL_PERSON_ORGANIZATION ( #17, #10, #79 ) ;
#71 = DIRECTION ( 'NONE',  ( -3.491481338843133355E-15, 1.224646799147353207E-16, -1.000000000000000000 ) ) ;
#72 = DIRECTION ( 'NONE',  ( -4.275831445896958607E-31, -1.000000000000000000, -1.224646799147353207E-16 ) ) ;
#73 = EDGE_CURVE ( 'NONE', #124, #124, #214, .T. ) ;
#74 = DIRECTION ( 'NONE',  ( -5.135813185032644414E-31, -1.000000000000000000, -1.445602896647343601E-16 ) ) ;
#75 = FACE_BOUND ( 'NONE', #68, .T. ) ;
#76 = PRODUCT_DEFINITION_FORMATION_WITH_SPECIFIED_SOURCE ( 'ANY', '', #52, .NOT_KNOWN. ) ;
#77 = PRODUCT_RELATED_PRODUCT_CATEGORY ( 'detail', '', ( #52 ) ) ;
#78 = DATE_AND_TIME ( #113, #22 ) ;
#79 = APPROVAL_ROLE ( '' ) ;
#80 = CIRCLE ( 'NONE', #87, 1.199999999999999956 ) ;
#81 = CALENDAR_DATE ( 2021, 28, 10 ) ;
#82 = CALENDAR_DATE ( 2021, 28, 10 ) ;
#83 = DIRECTION ( 'NONE',  ( -3.491481338843133355E-15, 1.224646799147353207E-16, -1.000000000000000000 ) ) ;
#84 = ORIENTED_EDGE ( 'NONE', *, *, #123, .T. ) ;
#85 = ADVANCED_FACE ( 'NONE', ( #25 ), #179, .T. ) ;
#86 = DIRECTION ( 'NONE',  ( -3.491481338843133355E-15, 1.229791517316362731E-16, -1.000000000000000000 ) ) ;
#87 = AXIS2_PLACEMENT_3D ( 'NONE', #43, #163, #158 ) ;
#88 = CARTESIAN_POINT ( 'NONE',  ( 1.326762908760390423E-13, 8.998558695971077224E-33, 38.00000000000000000 ) ) ;
#89 = ADVANCED_FACE ( 'NONE', ( #125, #220 ), #54, .T. ) ;
#90 = CARTESIAN_POINT ( 'NONE',  ( 4.965920345273847361E-14, -1.749127697847019819E-15, 14.22296115413079676 ) ) ;
#91 = DIRECTION ( 'NONE',  ( 0.0000000000000000000, 1.000000000000000000, 0.0000000000000000000 ) ) ;
#92 = AXIS2_PLACEMENT_3D ( 'NONE', #159, #40, #41 ) ;
#93 = PERSON_AND_ORGANIZATION ( #60, #184 ) ;
#94 = PRODUCT_DEFINITION ( 'UNKNOWN', '', #76, #151 ) ;
#95 = PERSON_AND_ORGANIZATION_ROLE ( 'creator' ) ;
#96 = APPROVAL_ROLE ( '' ) ;
#97 = AXIS2_PLACEMENT_3D ( 'NONE', #222, #86, #91 ) ;
#98 = PERSON_AND_ORGANIZATION ( #60, #184 ) ;
#99 = EDGE_LOOP ( 'NONE', ( #36 ) ) ;
#100 = CC_DESIGN_SECURITY_CLASSIFICATION ( #117, ( #76 ) ) ;
#101 = EDGE_LOOP ( 'NONE', ( #138 ) ) ;
#102 = ORIENTED_EDGE ( 'NONE', *, *, #6, .F. ) ;
#103 = CARTESIAN_POINT ( 'NONE',  ( 3.910459099504309358E-14, 0.6899999999999936184, 11.19999999999999929 ) ) ;
#104 = DIRECTION ( 'NONE',  ( 3.491481338843133355E-15, -1.224646799147353207E-16, 1.000000000000000000 ) ) ;
#105 = CYLINDRICAL_SURFACE ( 'NONE', #126, 1.499999999999998224 ) ;
#106 = FACE_OUTER_BOUND ( 'NONE', #23, .T. ) ;
#107 = CARTESIAN_POINT ( 'NONE',  ( 1.906192921252232855E-15, -6.686024735685322183E-17, 0.5459553513993090634 ) ) ;
#108 = DATE_TIME_ROLE ( 'classification_date' ) ;
#109 = DIRECTION ( 'NONE',  ( 0.0000000000000000000, 0.0000000000000000000, 1.000000000000000000 ) ) ;
#110 = PERSON_AND_ORGANIZATION ( #60, #184 ) ;
#111 = AXIS2_PLACEMENT_3D ( 'NONE', #88, #162, #199 ) ;
#112 = AXIS2_PLACEMENT_3D ( 'NONE', #16, #109, #204 ) ;
#113 = CALENDAR_DATE ( 2021, 28, 10 ) ;
#114 = APPROVAL ( #4, 'UNSPECIFIED' ) ;
#115 = MANIFOLD_SOLID_BREP ( 'Corps-Déplacer/Copier1[2]', #205 ) ;
#116 = AXIS2_PLACEMENT_3D ( 'NONE', #142, #13, #72 ) ;
#117 = SECURITY_CLASSIFICATION ( '', '', #147 ) ;
#118 = EDGE_LOOP ( 'NONE', ( #196 ) ) ;
#119 = CC_DESIGN_PERSON_AND_ORGANIZATION_ASSIGNMENT ( #35, #95, ( #94 ) ) ;
#120 = PLANE ( 'NONE',  #149 ) ;
#121 = CONICAL_SURFACE ( 'NONE', #180, 1.199999999999999956, 0.7853981633974453924 ) ;
#122 = FACE_OUTER_BOUND ( 'NONE', #5, .T. ) ;
#123 = EDGE_CURVE ( 'NONE', #127, #127, #164, .T. ) ;
#124 = VERTEX_POINT ( 'NONE', #12 ) ;
#125 = FACE_OUTER_BOUND ( 'NONE', #24, .T. ) ;
#126 = AXIS2_PLACEMENT_3D ( 'NONE', #181, #201, #128 ) ;
#127 = VERTEX_POINT ( 'NONE', #103 ) ;
#128 = DIRECTION ( 'NONE',  ( 4.275831445896958607E-31, 1.000000000000000000, 1.224646799147353207E-16 ) ) ;
#129 = ADVANCED_FACE ( 'NONE', ( #30, #106 ), #105, .T. ) ;
#130 =( LENGTH_UNIT ( ) NAMED_UNIT ( * ) SI_UNIT ( .MILLI., .METRE. ) );
#131 = APPLICATION_CONTEXT ( 'configuration controlled 3d designs of mechanical parts and assemblies' ) ;
#132 = APPLICATION_PROTOCOL_DEFINITION ( 'international standard', 'config_control_design', 1994, #170 ) ;
#133 = EDGE_CURVE ( 'NONE', #202, #202, #80, .T. ) ;
#134 = DATE_AND_TIME ( #64, #219 ) ;
#135 = PERSON_AND_ORGANIZATION_ROLE ( 'design_supplier' ) ;
#136 = ORIENTED_EDGE ( 'NONE', *, *, #73, .T. ) ;
#137 = ADVANCED_FACE ( 'NONE', ( #75, #27 ), #26, .T. ) ;
#138 = ORIENTED_EDGE ( 'NONE', *, *, #123, .F. ) ;
#139 = SHAPE_DEFINITION_REPRESENTATION ( #46, #168 ) ;
#140 = ORIENTED_EDGE ( 'NONE', *, *, #133, .F. ) ;
#141 = FACE_OUTER_BOUND ( 'NONE', #37, .T. ) ;
#142 = CARTESIAN_POINT ( 'NONE',  ( 3.910459099504309358E-14, 1.124819836996388827E-32, 11.19999999999999929 ) ) ;
#143 = DIRECTION ( 'NONE',  ( -5.582405635905072342E-31, -1.000000000000000000, -1.571307496355815035E-16 ) ) ;
#144 = DIRECTION ( 'NONE',  ( 4.293794133377662246E-31, 1.000000000000000000, 1.229791517316362731E-16 ) ) ;
#145 = APPROVAL_PERSON_ORGANIZATION ( #185, #114, #7 ) ;
#146 = DIRECTION ( 'NONE',  ( -3.491481338843133355E-15, 1.229791517316362731E-16, -1.000000000000000000 ) ) ;
#147 = SECURITY_CLASSIFICATION_LEVEL ( 'unclassified' ) ;
#148 = ADVANCED_FACE ( 'NONE', ( #122 ), #11, .F. ) ;
#149 = AXIS2_PLACEMENT_3D ( 'NONE', #197, #104, #177 ) ;
#150 = PERSON_AND_ORGANIZATION_ROLE ( 'design_owner' ) ;
#151 = DESIGN_CONTEXT ( 'detailed design', #131, 'design' ) ;
#152 = DATE_AND_TIME ( #81, #160 ) ;
#153 = APPROVAL_STATUS ( 'not_yet_approved' ) ;
#154 = EDGE_CURVE ( 'NONE', #29, #29, #215, .T. ) ;
#155 = COORDINATED_UNIVERSAL_TIME_OFFSET ( 1, 0, .AHEAD. ) ;
#156 = EDGE_LOOP ( 'NONE', ( #195 ) ) ;
#157 = AXIS2_PLACEMENT_3D ( 'NONE', #9, #59, #143 ) ;
#158 = DIRECTION ( 'NONE',  ( 0.0000000000000000000, 1.000000000000000000, 0.0000000000000000000 ) ) ;
#159 = CARTESIAN_POINT ( 'NONE',  ( 3.910459099504309358E-14, -1.377366499394326377E-15, 11.19999999999999929 ) ) ;
#160 = LOCAL_TIME ( 11, 23, 8.000000000000000000, #18 ) ;
#161 = CARTESIAN_POINT ( 'NONE',  ( 1.316288464743861212E-13, 1.499999999999995337, 37.69999999999999574 ) ) ;
#162 = DIRECTION ( 'NONE',  ( -3.491481338843133355E-15, 1.224646799147353207E-16, -1.000000000000000000 ) ) ;
#163 = DIRECTION ( 'NONE',  ( -3.491481338843133355E-15, 1.224646799147353207E-16, -1.000000000000000000 ) ) ;
#164 = CIRCLE ( 'NONE', #97, 0.6899999999999949507 ) ;
#165 = PERSON_AND_ORGANIZATION_ROLE ( 'creator' ) ;
#166 = VERTEX_POINT ( 'NONE', #187 ) ;
#167 = APPROVAL_PERSON_ORGANIZATION ( #98, #48, #96 ) ;
#168 = ADVANCED_BREP_SHAPE_REPRESENTATION ( '962930', ( #198, #115, #112 ), #53 ) ;
#169 = DATE_TIME_ROLE ( 'creation_date' ) ;
#170 = APPLICATION_CONTEXT ( 'configuration controlled 3d designs of mechanical parts and assemblies' ) ;
#171 = EDGE_CURVE ( 'NONE', #166, #166, #57, .T. ) ;
#172 = APPROVAL_DATE_TIME ( #20, #114 ) ;
#173 = AXIS2_PLACEMENT_3D ( 'NONE', #56, #55, #144 ) ;
#174 = CC_DESIGN_APPROVAL ( #10, ( #76 ) ) ;
#175 = CARTESIAN_POINT ( 'NONE',  ( 1.316288464743861212E-13, -4.616918432785521081E-15, 37.69999999999999574 ) ) ;
#176 = ADVANCED_FACE ( 'NONE', ( #183, #58 ), #121, .T. ) ;
#177 = DIRECTION ( 'NONE',  ( -4.275831445896958607E-31, -1.000000000000000000, -1.224646799147353207E-16 ) ) ;
#178 = DIRECTION ( 'NONE',  ( 3.491481338843133355E-15, -1.224646799147353207E-16, 1.000000000000000000 ) ) ;
#179 = CONICAL_SURFACE ( 'NONE', #21, 1.499999999999995559, 1.221730476396026388 ) ;
#180 = AXIS2_PLACEMENT_3D ( 'NONE', #8, #71, #69 ) ;
#181 = CARTESIAN_POINT ( 'NONE',  ( 0.0000000000000000000, 0.0000000000000000000, 0.0000000000000000000 ) ) ;
#182 = CARTESIAN_POINT ( 'NONE',  ( 1.326762908760390423E-13, 1.199999999999995293, 38.00000000000000000 ) ) ;
#183 = FACE_OUTER_BOUND ( 'NONE', #38, .T. ) ;
#184 = ORGANIZATION ( 'UNSPECIFIED', 'UNSPECIFIED', '' ) ;
#185 = PERSON_AND_ORGANIZATION ( #60, #184 ) ;
#186 = COORDINATED_UNIVERSAL_TIME_OFFSET ( 1, 0, .AHEAD. ) ;
#187 = CARTESIAN_POINT ( 'NONE',  ( 4.965920345273847361E-14, 1.499999999999996891, 14.22296115413079676 ) ) ;
#188 = CIRCLE ( 'NONE', #217, 1.499999999999999778 ) ;
#189 = AXIS2_PLACEMENT_3D ( 'NONE', #90, #146, #221 ) ;
#190 = COORDINATED_UNIVERSAL_TIME_OFFSET ( 1, 0, .AHEAD. ) ;
#191 = CC_DESIGN_DATE_AND_TIME_ASSIGNMENT ( #2, #108, ( #117 ) ) ;
#192 = EDGE_LOOP ( 'NONE', ( #211 ) ) ;
#193 = CC_DESIGN_PERSON_AND_ORGANIZATION_ASSIGNMENT ( #110, #44, ( #117 ) ) ;
#194 = CALENDAR_DATE ( 2021, 28, 10 ) ;
#195 = ORIENTED_EDGE ( 'NONE', *, *, #133, .T. ) ;
#196 = ORIENTED_EDGE ( 'NONE', *, *, #154, .F. ) ;
#197 = CARTESIAN_POINT ( 'NONE',  ( 3.910459099504309358E-14, 1.124819836996388827E-32, 11.19999999999999929 ) ) ;
#198 = MANIFOLD_SOLID_BREP ( 'Corps-Déplacer/Copier1[1]', #33 ) ;
#199 = DIRECTION ( 'NONE',  ( 4.275831445896958607E-31, 1.000000000000000000, 1.224646799147353207E-16 ) ) ;
#200 = CC_DESIGN_PERSON_AND_ORGANIZATION_ASSIGNMENT ( #62, #135, ( #76 ) ) ;
#201 = DIRECTION ( 'NONE',  ( -3.491481338843133355E-15, 1.224646799147353207E-16, -1.000000000000000000 ) ) ;
#202 = VERTEX_POINT ( 'NONE', #182 ) ;
#203 = CARTESIAN_POINT ( 'NONE',  ( 4.965920345273847361E-14, -1.749127697847019819E-15, 14.22296115413079676 ) ) ;
#204 = DIRECTION ( 'NONE',  ( 1.000000000000000000, 0.0000000000000000000, 0.0000000000000000000 ) ) ;
#205 = CLOSED_SHELL ( 'NONE', ( #63, #89, #85 ) ) ;
#206 = LOCAL_TIME ( 11, 23, 8.000000000000000000, #155 ) ;
#207 = MECHANICAL_CONTEXT ( 'NONE', #170, 'mechanical' ) ;
#208 = CARTESIAN_POINT ( 'NONE',  ( 8.768487437760228142E-16, -0.6899999999999949507, 0.2511394616436808946 ) ) ;
#209 = UNCERTAINTY_MEASURE_WITH_UNIT (LENGTH_MEASURE( 1.000000000000000082E-05 ), #130, 'distance_accuracy_value', 'NONE');
#210 =( NAMED_UNIT ( * ) PLANE_ANGLE_UNIT ( ) SI_UNIT ( $, .RADIAN. ) );
#211 = ORIENTED_EDGE ( 'NONE', *, *, #171, .F. ) ;
#212 = ADVANCED_FACE ( 'NONE', ( #141 ), #218, .F. ) ;
#213 = FACE_OUTER_BOUND ( 'NONE', #101, .T. ) ;
#214 = CIRCLE ( 'NONE', #92, 0.6899999999999949507 ) ;
#215 = CIRCLE ( 'NONE', #157, 0.6899999999999949507 ) ;
#216 = EDGE_LOOP ( 'NONE', ( #66 ) ) ;
#217 = AXIS2_PLACEMENT_3D ( 'NONE', #175, #83, #51 ) ;
#218 = PLANE ( 'NONE',  #111 ) ;
#219 = LOCAL_TIME ( 11, 23, 8.000000000000000000, #19 ) ;
#220 = FACE_OUTER_BOUND ( 'NONE', #118, .T. ) ;
#221 = DIRECTION ( 'NONE',  ( 0.0000000000000000000, 1.000000000000000000, 0.0000000000000000000 ) ) ;
#222 = CARTESIAN_POINT ( 'NONE',  ( 3.910459099504309358E-14, -1.377366499394326377E-15, 11.19999999999999929 ) ) ;
#223 = APPROVAL_DATE_TIME ( #78, #48 ) ;
ENDSEC;
END-ISO-10303-21;
