ISO-10303-21;
HEADER;
FILE_DESCRIPTION (( 'STEP AP203' ),
    '1' );
FILE_NAME ('962928.step',
    '2021-10-28T09:23:07',
    ( '' ),
    ( '' ),
    'SwSTEP 2.0',
    'SolidWorks 2019',
    '' );
FILE_SCHEMA (( 'CONFIG_CONTROL_DESIGN' ));
ENDSEC;

DATA;
#1 = DIRECTION ( 'NONE',  ( 1.000000000000000000, 0.0000000000000000000, 0.0000000000000000000 ) ) ;
#2 = APPLICATION_CONTEXT ( 'configuration controlled 3d designs of mechanical parts and assemblies' ) ;
#3 = EDGE_LOOP ( 'NONE', ( #4 ) ) ;
#4 = ORIENTED_EDGE ( 'NONE', *, *, #119, .F. ) ;
#5 = CIRCLE ( 'NONE', #134, 0.6849999999999949463 ) ;
#6 = PRODUCT_DEFINITION ( 'UNKNOWN', '', #109, #56 ) ;
#7 = APPROVAL_DATE_TIME ( #74, #153 ) ;
#8 = EDGE_LOOP ( 'NONE', ( #94 ) ) ;
#9 = APPROVAL_PERSON_ORGANIZATION ( #22, #143, #155 ) ;
#10 = CC_DESIGN_PERSON_AND_ORGANIZATION_ASSIGNMENT ( #152, #223, ( #109 ) ) ;
#11 = DIRECTION ( 'NONE',  ( -3.491481338843133355E-15, 1.224646799147353207E-16, -1.000000000000000000 ) ) ;
#12 = CARTESIAN_POINT ( 'NONE',  ( 0.0000000000000000000, 0.0000000000000000000, 0.0000000000000000000 ) ) ;
#13 = DIRECTION ( 'NONE',  ( 0.0000000000000000000, 1.000000000000000000, 0.0000000000000000000 ) ) ;
#14 = CONICAL_SURFACE ( 'NONE', #42, 1.499999999999998668, 0.2617993877991501295 ) ;
#15 = CC_DESIGN_APPROVAL ( #143, ( #109 ) ) ;
#16 = ADVANCED_FACE ( 'NONE', ( #129 ), #75, .F. ) ;
#17 = CARTESIAN_POINT ( 'NONE',  ( 4.972435538148967557E-14, -1.751422520059690846E-15, 14.24162140816864053 ) ) ;
#18 = PERSON_AND_ORGANIZATION ( #178, #128 ) ;
#19 = PERSON_AND_ORGANIZATION ( #178, #128 ) ;
#20 = CONICAL_SURFACE ( 'NONE', #104, 1.499999999999995559, 1.221730476396026388 ) ;
#21 = PERSON_AND_ORGANIZATION_ROLE ( 'creator' ) ;
#22 = PERSON_AND_ORGANIZATION ( #178, #128 ) ;
#23 = EDGE_LOOP ( 'NONE', ( #73 ) ) ;
#24 = EDGE_CURVE ( 'NONE', #85, #85, #149, .T. ) ;
#25 = SHAPE_DEFINITION_REPRESENTATION ( #125, #50 ) ;
#26 = DIRECTION ( 'NONE',  ( 3.491481338843133355E-15, -1.229791517316362731E-16, 1.000000000000000000 ) ) ;
#27 = SECURITY_CLASSIFICATION ( '', '', #154 ) ;
#28 = VERTEX_POINT ( 'NONE', #219 ) ;
#29 = VERTEX_POINT ( 'NONE', #90 ) ;
#30 = CARTESIAN_POINT ( 'NONE',  ( 0.0000000000000000000, 0.0000000000000000000, 0.0000000000000000000 ) ) ;
#31 =( GEOMETRIC_REPRESENTATION_CONTEXT ( 3 ) GLOBAL_UNCERTAINTY_ASSIGNED_CONTEXT ( ( #158 ) ) GLOBAL_UNIT_ASSIGNED_CONTEXT ( ( #66, #170, #33 ) ) REPRESENTATION_CONTEXT ( 'NONE', 'WORKASPACE' ) );
#32 = PERSON_AND_ORGANIZATION ( #178, #128 ) ;
#33 =( NAMED_UNIT ( * ) SI_UNIT ( $, .STERADIAN. ) SOLID_ANGLE_UNIT ( ) );
#34 = AXIS2_PLACEMENT_3D ( 'NONE', #12, #169, #205 ) ;
#35 = PERSON_AND_ORGANIZATION ( #178, #128 ) ;
#36 = AXIS2_PLACEMENT_3D ( 'NONE', #80, #132, #167 ) ;
#37 = ORIENTED_EDGE ( 'NONE', *, *, #156, .T. ) ;
#38 = ORIENTED_EDGE ( 'NONE', *, *, #24, .F. ) ;
#39 = EDGE_CURVE ( 'NONE', #147, #147, #124, .T. ) ;
#40 = EDGE_LOOP ( 'NONE', ( #77 ) ) ;
#41 = APPROVAL_ROLE ( '' ) ;
#42 = AXIS2_PLACEMENT_3D ( 'NONE', #114, #26, #203 ) ;
#43 = PRODUCT_RELATED_PRODUCT_CATEGORY ( 'detail', '', ( #190 ) ) ;
#44 = FACE_BOUND ( 'NONE', #40, .T. ) ;
#45 = DIRECTION ( 'NONE',  ( -5.623153122298540554E-31, -1.000000000000000000, -1.582776894139434273E-16 ) ) ;
#46 = FACE_OUTER_BOUND ( 'NONE', #192, .T. ) ;
#47 = EDGE_CURVE ( 'NONE', #28, #28, #214, .T. ) ;
#48 = DIRECTION ( 'NONE',  ( 0.0000000000000000000, 1.000000000000000000, 0.0000000000000000000 ) ) ;
#49 = DIRECTION ( 'NONE',  ( -4.275831445896958607E-31, -1.000000000000000000, -1.224646799147353207E-16 ) ) ;
#50 = ADVANCED_BREP_SHAPE_REPRESENTATION ( '962928', ( #217, #67, #99 ), #31 ) ;
#51 = APPROVAL_PERSON_ORGANIZATION ( #35, #122, #108 ) ;
#52 = COORDINATED_UNIVERSAL_TIME_OFFSET ( 1, 0, .AHEAD. ) ;
#53 = ADVANCED_FACE ( 'NONE', ( #150 ), #146, .F. ) ;
#54 = CALENDAR_DATE ( 2021, 28, 10 ) ;
#55 = PERSON_AND_ORGANIZATION_ROLE ( 'creator' ) ;
#56 = DESIGN_CONTEXT ( 'detailed design', #166, 'design' ) ;
#57 = CLOSED_SHELL ( 'NONE', ( #201, #97, #82 ) ) ;
#58 = EDGE_LOOP ( 'NONE', ( #37 ) ) ;
#59 = EDGE_LOOP ( 'NONE', ( #60 ) ) ;
#60 = ORIENTED_EDGE ( 'NONE', *, *, #181, .F. ) ;
#61 = CARTESIAN_POINT ( 'NONE',  ( 1.906192921252232855E-15, -6.686024735685322183E-17, 0.5459553513993090634 ) ) ;
#62 = DIRECTION ( 'NONE',  ( 0.0000000000000000000, 1.000000000000000000, 0.0000000000000000000 ) ) ;
#63 = CC_DESIGN_SECURITY_CLASSIFICATION ( #27, ( #109 ) ) ;
#64 = DIRECTION ( 'NONE',  ( -3.491481338843133355E-15, 1.229791517316362731E-16, -1.000000000000000000 ) ) ;
#65 = FACE_OUTER_BOUND ( 'NONE', #198, .T. ) ;
#66 =( LENGTH_UNIT ( ) NAMED_UNIT ( * ) SI_UNIT ( .MILLI., .METRE. ) );
#67 = MANIFOLD_SOLID_BREP ( 'Corps-Déplacer/Copier1[2]', #57 ) ;
#68 = LOCAL_TIME ( 11, 23, 7.000000000000000000, #137 ) ;
#69 = CALENDAR_DATE ( 2021, 28, 10 ) ;
#70 = APPROVAL_STATUS ( 'not_yet_approved' ) ;
#71 = CALENDAR_DATE ( 2021, 28, 10 ) ;
#72 = AXIS2_PLACEMENT_3D ( 'NONE', #98, #11, #102 ) ;
#73 = ORIENTED_EDGE ( 'NONE', *, *, #119, .T. ) ;
#74 = DATE_AND_TIME ( #141, #92 ) ;
#75 = PLANE ( 'NONE',  #144 ) ;
#76 = APPROVAL_PERSON_ORGANIZATION ( #173, #153, #41 ) ;
#77 = ORIENTED_EDGE ( 'NONE', *, *, #156, .F. ) ;
#78 = CC_DESIGN_PERSON_AND_ORGANIZATION_ASSIGNMENT ( #18, #191, ( #190 ) ) ;
#79 = AXIS2_PLACEMENT_3D ( 'NONE', #222, #199, #130 ) ;
#80 = CARTESIAN_POINT ( 'NONE',  ( 3.910459099504309358E-14, 1.124819836996388827E-32, 11.19999999999999929 ) ) ;
#81 = FACE_OUTER_BOUND ( 'NONE', #96, .T. ) ;
#82 = ADVANCED_FACE ( 'NONE', ( #163 ), #20, .T. ) ;
#83 = DIRECTION ( 'NONE',  ( -3.491481338843133355E-15, 1.229791517316362731E-16, -1.000000000000000000 ) ) ;
#84 = AXIS2_PLACEMENT_3D ( 'NONE', #17, #83, #48 ) ;
#85 = VERTEX_POINT ( 'NONE', #180 ) ;
#86 = CC_DESIGN_DATE_AND_TIME_ASSIGNMENT ( #186, #126, ( #27 ) ) ;
#87 = DIRECTION ( 'NONE',  ( 3.491481338843133355E-15, -1.224646799147353207E-16, 1.000000000000000000 ) ) ;
#88 = DATE_TIME_ROLE ( 'creation_date' ) ;
#89 = VERTEX_POINT ( 'NONE', #210 ) ;
#90 = CARTESIAN_POINT ( 'NONE',  ( 3.910459099504309358E-14, 0.6849999999999935030, 11.19999999999999929 ) ) ;
#91 = APPLICATION_PROTOCOL_DEFINITION ( 'international standard', 'config_control_design', 1994, #2 ) ;
#92 = LOCAL_TIME ( 11, 23, 7.000000000000000000, #112 ) ;
#93 = ORIENTED_EDGE ( 'NONE', *, *, #39, .F. ) ;
#94 = ORIENTED_EDGE ( 'NONE', *, *, #39, .T. ) ;
#95 = AXIS2_PLACEMENT_3D ( 'NONE', #30, #64, #100 ) ;
#96 = EDGE_LOOP ( 'NONE', ( #38 ) ) ;
#97 = ADVANCED_FACE ( 'NONE', ( #46, #220 ), #183, .T. ) ;
#98 = CARTESIAN_POINT ( 'NONE',  ( 1.316288464743861212E-13, -4.616918432785521081E-15, 37.69999999999999574 ) ) ;
#99 = AXIS2_PLACEMENT_3D ( 'NONE', #174, #209, #1 ) ;
#100 = DIRECTION ( 'NONE',  ( 4.293794133377662246E-31, 1.000000000000000000, 1.229791517316362731E-16 ) ) ;
#101 = DIRECTION ( 'NONE',  ( -3.491481338843133355E-15, 1.229791517316362731E-16, -1.000000000000000000 ) ) ;
#102 = DIRECTION ( 'NONE',  ( 0.0000000000000000000, 1.000000000000000000, 0.0000000000000000000 ) ) ;
#103 = CARTESIAN_POINT ( 'NONE',  ( 3.910459099504309358E-14, 1.124819836996388827E-32, 11.19999999999999929 ) ) ;
#104 = AXIS2_PLACEMENT_3D ( 'NONE', #61, #179, #165 ) ;
#105 = COORDINATED_UNIVERSAL_TIME_OFFSET ( 1, 0, .AHEAD. ) ;
#106 = ADVANCED_FACE ( 'NONE', ( #133, #136 ), #202, .T. ) ;
#107 = DATE_AND_TIME ( #54, #207 ) ;
#108 = APPROVAL_ROLE ( '' ) ;
#109 = PRODUCT_DEFINITION_FORMATION_WITH_SPECIFIED_SOURCE ( 'ANY', '', #190, .NOT_KNOWN. ) ;
#110 = ORIENTED_EDGE ( 'NONE', *, *, #181, .T. ) ;
#111 = DIRECTION ( 'NONE',  ( -3.491481338843133355E-15, 1.224646799147353207E-16, -1.000000000000000000 ) ) ;
#112 = COORDINATED_UNIVERSAL_TIME_OFFSET ( 1, 0, .AHEAD. ) ;
#113 = FACE_OUTER_BOUND ( 'NONE', #8, .T. ) ;
#114 = CARTESIAN_POINT ( 'NONE',  ( 4.972435538148967557E-14, -1.751422520059690846E-15, 14.24162140816864053 ) ) ;
#115 = AXIS2_PLACEMENT_3D ( 'NONE', #135, #117, #62 ) ;
#116 = VERTEX_POINT ( 'NONE', #182 ) ;
#117 = DIRECTION ( 'NONE',  ( -3.491481338843133355E-15, 1.224646799147353207E-16, -1.000000000000000000 ) ) ;
#118 = CARTESIAN_POINT ( 'NONE',  ( 1.326762908760390423E-13, -4.653657836759941941E-15, 38.00000000000000000 ) ) ;
#119 = EDGE_CURVE ( 'NONE', #116, #116, #5, .T. ) ;
#120 = CC_DESIGN_APPROVAL ( #153, ( #27 ) ) ;
#121 = APPROVAL_STATUS ( 'not_yet_approved' ) ;
#122 = APPROVAL ( #121, 'UNSPECIFIED' ) ;
#123 = DATE_AND_TIME ( #71, #212 ) ;
#124 = CIRCLE ( 'NONE', #84, 1.499999999999998668 ) ;
#125 = PRODUCT_DEFINITION_SHAPE ( 'NONE', 'NONE',  #6 ) ;
#126 = DATE_TIME_ROLE ( 'classification_date' ) ;
#127 = CC_DESIGN_PERSON_AND_ORGANIZATION_ASSIGNMENT ( #157, #21, ( #6 ) ) ;
#128 = ORGANIZATION ( 'UNSPECIFIED', 'UNSPECIFIED', '' ) ;
#129 = FACE_OUTER_BOUND ( 'NONE', #195, .T. ) ;
#130 = DIRECTION ( 'NONE',  ( 0.0000000000000000000, 1.000000000000000000, 0.0000000000000000000 ) ) ;
#131 = ADVANCED_FACE ( 'NONE', ( #184, #65 ), #148, .T. ) ;
#132 = DIRECTION ( 'NONE',  ( 3.491481338843133355E-15, -1.224646799147353207E-16, 1.000000000000000000 ) ) ;
#133 = FACE_OUTER_BOUND ( 'NONE', #59, .T. ) ;
#134 = AXIS2_PLACEMENT_3D ( 'NONE', #200, #151, #45 ) ;
#135 = CARTESIAN_POINT ( 'NONE',  ( 1.326762908760390423E-13, -4.653657836759941941E-15, 38.00000000000000000 ) ) ;
#136 = FACE_BOUND ( 'NONE', #142, .T. ) ;
#137 = COORDINATED_UNIVERSAL_TIME_OFFSET ( 1, 0, .AHEAD. ) ;
#138 = COORDINATED_UNIVERSAL_TIME_OFFSET ( 1, 0, .AHEAD. ) ;
#139 = CIRCLE ( 'NONE', #79, 0.6849999999999949463 ) ;
#140 = APPROVAL_DATE_TIME ( #123, #143 ) ;
#141 = CALENDAR_DATE ( 2021, 28, 10 ) ;
#142 = EDGE_LOOP ( 'NONE', ( #160 ) ) ;
#143 = APPROVAL ( #70, 'UNSPECIFIED' ) ;
#144 = AXIS2_PLACEMENT_3D ( 'NONE', #196, #111, #176 ) ;
#145 = ORIENTED_EDGE ( 'NONE', *, *, #47, .F. ) ;
#146 = PLANE ( 'NONE',  #197 ) ;
#147 = VERTEX_POINT ( 'NONE', #164 ) ;
#148 = CYLINDRICAL_SURFACE ( 'NONE', #34, 1.499999999999998224 ) ;
#149 = CIRCLE ( 'NONE', #172, 0.6849999999999949463 ) ;
#150 = FACE_OUTER_BOUND ( 'NONE', #58, .T. ) ;
#151 = DIRECTION ( 'NONE',  ( -3.491481338843133355E-15, 1.224646799147353207E-16, -1.000000000000000000 ) ) ;
#152 = PERSON_AND_ORGANIZATION ( #178, #128 ) ;
#153 = APPROVAL ( #171, 'UNSPECIFIED' ) ;
#154 = SECURITY_CLASSIFICATION_LEVEL ( 'unclassified' ) ;
#155 = APPROVAL_ROLE ( '' ) ;
#156 = EDGE_CURVE ( 'NONE', #29, #29, #139, .T. ) ;
#157 = PERSON_AND_ORGANIZATION ( #178, #128 ) ;
#158 = UNCERTAINTY_MEASURE_WITH_UNIT (LENGTH_MEASURE( 1.000000000000000082E-05 ), #66, 'distance_accuracy_value', 'NONE');
#159 = ADVANCED_FACE ( 'NONE', ( #44, #113 ), #14, .T. ) ;
#160 = ORIENTED_EDGE ( 'NONE', *, *, #47, .T. ) ;
#161 = CARTESIAN_POINT ( 'NONE',  ( 3.910459099504309358E-14, -1.377366499394326377E-15, 11.19999999999999929 ) ) ;
#162 = EDGE_LOOP ( 'NONE', ( #93 ) ) ;
#163 = FACE_OUTER_BOUND ( 'NONE', #23, .T. ) ;
#164 = CARTESIAN_POINT ( 'NONE',  ( 4.972435538148967557E-14, 1.499999999999996891, 14.24162140816864053 ) ) ;
#165 = DIRECTION ( 'NONE',  ( -5.135813185032644414E-31, -1.000000000000000000, -1.445602896647343601E-16 ) ) ;
#166 = APPLICATION_CONTEXT ( 'configuration controlled 3d designs of mechanical parts and assemblies' ) ;
#167 = DIRECTION ( 'NONE',  ( -4.275831445896958607E-31, -1.000000000000000000, -1.224646799147353207E-16 ) ) ;
#168 = CIRCLE ( 'NONE', #72, 1.499999999999999778 ) ;
#169 = DIRECTION ( 'NONE',  ( -3.491481338843133355E-15, 1.224646799147353207E-16, -1.000000000000000000 ) ) ;
#170 =( NAMED_UNIT ( * ) PLANE_ANGLE_UNIT ( ) SI_UNIT ( $, .RADIAN. ) );
#171 = APPROVAL_STATUS ( 'not_yet_approved' ) ;
#172 = AXIS2_PLACEMENT_3D ( 'NONE', #161, #101, #13 ) ;
#173 = PERSON_AND_ORGANIZATION ( #178, #128 ) ;
#174 = CARTESIAN_POINT ( 'NONE',  ( 0.0000000000000000000, 0.0000000000000000000, 0.0000000000000000000 ) ) ;
#175 = CC_DESIGN_APPROVAL ( #122, ( #6 ) ) ;
#176 = DIRECTION ( 'NONE',  ( 4.275831445896958607E-31, 1.000000000000000000, 1.224646799147353207E-16 ) ) ;
#177 = CC_DESIGN_DATE_AND_TIME_ASSIGNMENT ( #208, #88, ( #6 ) ) ;
#178 = PERSON ( 'UNSPECIFIED', 'UNSPECIFIED', 'UNSPECIFIED', ('UNSPECIFIED'), ('UNSPECIFIED'), ('UNSPECIFIED') ) ;
#179 = DIRECTION ( 'NONE',  ( 3.491481338843133355E-15, -1.224646799147353207E-16, 1.000000000000000000 ) ) ;
#180 = CARTESIAN_POINT ( 'NONE',  ( 3.910459099504309358E-14, 0.6849999999999935030, 11.19999999999999929 ) ) ;
#181 = EDGE_CURVE ( 'NONE', #89, #89, #168, .T. ) ;
#182 = CARTESIAN_POINT ( 'NONE',  ( 8.704947673718485600E-16, -0.6849999999999949463, 0.2493196104723498785 ) ) ;
#183 = CYLINDRICAL_SURFACE ( 'NONE', #95, 0.6849999999999949463 ) ;
#184 = FACE_OUTER_BOUND ( 'NONE', #162, .T. ) ;
#185 = APPLICATION_PROTOCOL_DEFINITION ( 'international standard', 'config_control_design', 1994, #166 ) ;
#186 = DATE_AND_TIME ( #69, #215 ) ;
#187 = PERSON_AND_ORGANIZATION_ROLE ( 'classification_officer' ) ;
#188 = CALENDAR_DATE ( 2021, 28, 10 ) ;
#189 = CC_DESIGN_PERSON_AND_ORGANIZATION_ASSIGNMENT ( #19, #55, ( #109 ) ) ;
#190 = PRODUCT ( '962928', '962928', '', ( #206 ) ) ;
#191 = PERSON_AND_ORGANIZATION_ROLE ( 'design_owner' ) ;
#192 = EDGE_LOOP ( 'NONE', ( #216 ) ) ;
#193 = CC_DESIGN_PERSON_AND_ORGANIZATION_ASSIGNMENT ( #32, #187, ( #27 ) ) ;
#194 = CLOSED_SHELL ( 'NONE', ( #131, #106, #16, #159, #53 ) ) ;
#195 = EDGE_LOOP ( 'NONE', ( #145 ) ) ;
#196 = CARTESIAN_POINT ( 'NONE',  ( 1.326762908760390423E-13, 8.998558695971077224E-33, 38.00000000000000000 ) ) ;
#197 = AXIS2_PLACEMENT_3D ( 'NONE', #103, #87, #49 ) ;
#198 = EDGE_LOOP ( 'NONE', ( #110 ) ) ;
#199 = DIRECTION ( 'NONE',  ( -3.491481338843133355E-15, 1.229791517316362731E-16, -1.000000000000000000 ) ) ;
#200 = CARTESIAN_POINT ( 'NONE',  ( 8.704947673718489545E-16, -3.053284629296283087E-17, 0.2493196104723499895 ) ) ;
#201 = ADVANCED_FACE ( 'NONE', ( #81 ), #218, .T. ) ;
#202 = CONICAL_SURFACE ( 'NONE', #211, 1.199999999999999956, 0.7853981633974453924 ) ;
#203 = DIRECTION ( 'NONE',  ( 0.0000000000000000000, -1.000000000000000000, 0.0000000000000000000 ) ) ;
#204 = DIRECTION ( 'NONE',  ( 0.0000000000000000000, 1.000000000000000000, 0.0000000000000000000 ) ) ;
#205 = DIRECTION ( 'NONE',  ( 4.275831445896958607E-31, 1.000000000000000000, 1.224646799147353207E-16 ) ) ;
#206 = MECHANICAL_CONTEXT ( 'NONE', #2, 'mechanical' ) ;
#207 = LOCAL_TIME ( 11, 23, 7.000000000000000000, #138 ) ;
#208 = DATE_AND_TIME ( #188, #68 ) ;
#209 = DIRECTION ( 'NONE',  ( 0.0000000000000000000, 0.0000000000000000000, 1.000000000000000000 ) ) ;
#210 = CARTESIAN_POINT ( 'NONE',  ( 1.316288464743861212E-13, 1.499999999999995337, 37.69999999999999574 ) ) ;
#211 = AXIS2_PLACEMENT_3D ( 'NONE', #118, #221, #204 ) ;
#212 = LOCAL_TIME ( 11, 23, 7.000000000000000000, #52 ) ;
#213 = APPROVAL_DATE_TIME ( #107, #122 ) ;
#214 = CIRCLE ( 'NONE', #115, 1.199999999999999956 ) ;
#215 = LOCAL_TIME ( 11, 23, 7.000000000000000000, #105 ) ;
#216 = ORIENTED_EDGE ( 'NONE', *, *, #24, .T. ) ;
#217 = MANIFOLD_SOLID_BREP ( 'Corps-Déplacer/Copier1[1]', #194 ) ;
#218 = PLANE ( 'NONE',  #36 ) ;
#219 = CARTESIAN_POINT ( 'NONE',  ( 1.326762908760390423E-13, 1.199999999999995293, 38.00000000000000000 ) ) ;
#220 = FACE_OUTER_BOUND ( 'NONE', #3, .T. ) ;
#221 = DIRECTION ( 'NONE',  ( -3.491481338843133355E-15, 1.224646799147353207E-16, -1.000000000000000000 ) ) ;
#222 = CARTESIAN_POINT ( 'NONE',  ( 3.910459099504309358E-14, -1.377366499394326377E-15, 11.19999999999999929 ) ) ;
#223 = PERSON_AND_ORGANIZATION_ROLE ( 'design_supplier' ) ;
ENDSEC;
END-ISO-10303-21;
