ISO-10303-21;
HEADER;
FILE_DESCRIPTION (( 'STEP AP203' ),
    '1' );
FILE_NAME ('962927.step',
    '2021-10-28T09:23:07',
    ( '' ),
    ( '' ),
    'SwSTEP 2.0',
    'SolidWorks 2019',
    '' );
FILE_SCHEMA (( 'CONFIG_CONTROL_DESIGN' ));
ENDSEC;

DATA;
#1 = ORIENTED_EDGE ( 'NONE', *, *, #29, .F. ) ;
#2 = DIRECTION ( 'NONE',  ( 3.491481338843133355E-15, -1.224646799147353207E-16, 1.000000000000000000 ) ) ;
#3 = ADVANCED_FACE ( 'NONE', ( #16, #111 ), #85, .T. ) ;
#4 = DIRECTION ( 'NONE',  ( 0.0000000000000000000, 1.000000000000000000, 0.0000000000000000000 ) ) ;
#5 = LOCAL_TIME ( 11, 23, 7.000000000000000000, #165 ) ;
#6 = CARTESIAN_POINT ( 'NONE',  ( 1.326762908760390423E-13, 8.998558695971077224E-33, 38.00000000000000000 ) ) ;
#7 = ADVANCED_FACE ( 'NONE', ( #99 ), #164, .F. ) ;
#8 = FACE_OUTER_BOUND ( 'NONE', #52, .T. ) ;
#9 = DIRECTION ( 'NONE',  ( -3.491481338843133355E-15, 1.229791517316362731E-16, -1.000000000000000000 ) ) ;
#10 = AXIS2_PLACEMENT_3D ( 'NONE', #25, #127, #24 ) ;
#11 = VERTEX_POINT ( 'NONE', #30 ) ;
#12 = CALENDAR_DATE ( 2021, 28, 10 ) ;
#13 = DATE_TIME_ROLE ( 'creation_date' ) ;
#14 = CALENDAR_DATE ( 2021, 28, 10 ) ;
#15 = ORIENTED_EDGE ( 'NONE', *, *, #133, .F. ) ;
#16 = FACE_OUTER_BOUND ( 'NONE', #107, .T. ) ;
#17 = CIRCLE ( 'NONE', #67, 1.499999999999999778 ) ;
#18 = CC_DESIGN_PERSON_AND_ORGANIZATION_ASSIGNMENT ( #153, #218, ( #80 ) ) ;
#19 = EDGE_LOOP ( 'NONE', ( #188 ) ) ;
#20 = AXIS2_PLACEMENT_3D ( 'NONE', #150, #2, #176 ) ;
#21 = DESIGN_CONTEXT ( 'detailed design', #91, 'design' ) ;
#22 = ADVANCED_FACE ( 'NONE', ( #129, #193 ), #41, .T. ) ;
#23 = DIRECTION ( 'NONE',  ( -3.491481338843133355E-15, 1.224646799147353207E-16, -1.000000000000000000 ) ) ;
#24 = DIRECTION ( 'NONE',  ( -4.248374877324815829E-31, -1.000000000000000000, -1.594414959537518020E-16 ) ) ;
#25 = CARTESIAN_POINT ( 'NONE',  ( 8.641407909676748975E-16, -3.030997880177331454E-17, 0.2474997593010189734 ) ) ;
#26 = LOCAL_TIME ( 11, 23, 7.000000000000000000, #106 ) ;
#27 =( GEOMETRIC_REPRESENTATION_CONTEXT ( 3 ) GLOBAL_UNCERTAINTY_ASSIGNED_CONTEXT ( ( #38 ) ) GLOBAL_UNIT_ASSIGNED_CONTEXT ( ( #134, #46, #44 ) ) REPRESENTATION_CONTEXT ( 'NONE', 'WORKASPACE' ) );
#28 = COORDINATED_UNIVERSAL_TIME_OFFSET ( 1, 0, .AHEAD. ) ;
#29 = EDGE_CURVE ( 'NONE', #115, #115, #17, .T. ) ;
#30 = CARTESIAN_POINT ( 'NONE',  ( 3.910459099504309358E-14, 0.6799999999999936096, 11.19999999999999929 ) ) ;
#31 = APPLICATION_CONTEXT ( 'configuration controlled 3d designs of mechanical parts and assemblies' ) ;
#32 = PERSON_AND_ORGANIZATION_ROLE ( 'classification_officer' ) ;
#33 = ADVANCED_FACE ( 'NONE', ( #144, #78 ), #108, .T. ) ;
#34 = AXIS2_PLACEMENT_3D ( 'NONE', #148, #195, #179 ) ;
#35 = APPROVAL_STATUS ( 'not_yet_approved' ) ;
#36 = LOCAL_TIME ( 11, 23, 7.000000000000000000, #28 ) ;
#37 = EDGE_LOOP ( 'NONE', ( #158 ) ) ;
#38 = UNCERTAINTY_MEASURE_WITH_UNIT (LENGTH_MEASURE( 1.000000000000000082E-05 ), #134, 'distance_accuracy_value', 'NONE');
#39 = PLANE ( 'NONE',  #34 ) ;
#40 = DIRECTION ( 'NONE',  ( -3.491481338843133355E-15, 1.229791517316362731E-16, -1.000000000000000000 ) ) ;
#41 = CYLINDRICAL_SURFACE ( 'NONE', #62, 1.499999999999998224 ) ;
#42 = DIRECTION ( 'NONE',  ( -3.491481338843133355E-15, 1.229791517316362731E-16, -1.000000000000000000 ) ) ;
#43 = CALENDAR_DATE ( 2021, 28, 10 ) ;
#44 =( NAMED_UNIT ( * ) SI_UNIT ( $, .STERADIAN. ) SOLID_ANGLE_UNIT ( ) );
#45 = AXIS2_PLACEMENT_3D ( 'NONE', #118, #161, #180 ) ;
#46 =( NAMED_UNIT ( * ) PLANE_ANGLE_UNIT ( ) SI_UNIT ( $, .RADIAN. ) );
#47 = COORDINATED_UNIVERSAL_TIME_OFFSET ( 1, 0, .AHEAD. ) ;
#48 = APPLICATION_PROTOCOL_DEFINITION ( 'international standard', 'config_control_design', 1994, #31 ) ;
#49 = ORGANIZATION ( 'UNSPECIFIED', 'UNSPECIFIED', '' ) ;
#50 = DATE_TIME_ROLE ( 'classification_date' ) ;
#51 = AXIS2_PLACEMENT_3D ( 'NONE', #63, #40, #128 ) ;
#52 = EDGE_LOOP ( 'NONE', ( #172 ) ) ;
#53 = EDGE_LOOP ( 'NONE', ( #94 ) ) ;
#54 = CC_DESIGN_SECURITY_CLASSIFICATION ( #190, ( #80 ) ) ;
#55 = DIRECTION ( 'NONE',  ( 0.0000000000000000000, 1.000000000000000000, 0.0000000000000000000 ) ) ;
#56 = APPROVAL_PERSON_ORGANIZATION ( #205, #81, #87 ) ;
#57 = DIRECTION ( 'NONE',  ( 3.491481338843133355E-15, -1.224646799147353207E-16, 1.000000000000000000 ) ) ;
#58 = APPROVAL ( #183, 'UNSPECIFIED' ) ;
#59 = CYLINDRICAL_SURFACE ( 'NONE', #151, 0.6799999999999950528 ) ;
#60 = CARTESIAN_POINT ( 'NONE',  ( 0.0000000000000000000, 0.0000000000000000000, 0.0000000000000000000 ) ) ;
#61 = ADVANCED_BREP_SHAPE_REPRESENTATION ( '962927', ( #76, #72, #156 ), #27 ) ;
#62 = AXIS2_PLACEMENT_3D ( 'NONE', #60, #98, #215 ) ;
#63 = CARTESIAN_POINT ( 'NONE',  ( 3.910459099504309358E-14, -1.377366499394326377E-15, 11.19999999999999929 ) ) ;
#64 = EDGE_CURVE ( 'NONE', #132, #132, #207, .T. ) ;
#65 = PERSON_AND_ORGANIZATION ( #125, #49 ) ;
#66 = PERSON_AND_ORGANIZATION ( #125, #49 ) ;
#67 = AXIS2_PLACEMENT_3D ( 'NONE', #101, #163, #4 ) ;
#68 = CC_DESIGN_PERSON_AND_ORGANIZATION_ASSIGNMENT ( #185, #32, ( #190 ) ) ;
#69 = PERSON_AND_ORGANIZATION_ROLE ( 'design_supplier' ) ;
#70 = DIRECTION ( 'NONE',  ( 0.0000000000000000000, 0.0000000000000000000, 1.000000000000000000 ) ) ;
#71 = APPROVAL_DATE_TIME ( #152, #81 ) ;
#72 = MANIFOLD_SOLID_BREP ( 'Corps-Déplacer/Copier1[2]', #117 ) ;
#73 = AXIS2_PLACEMENT_3D ( 'NONE', #6, #23, #114 ) ;
#74 = EDGE_LOOP ( 'NONE', ( #109 ) ) ;
#75 = EDGE_LOOP ( 'NONE', ( #124 ) ) ;
#76 = MANIFOLD_SOLID_BREP ( 'Corps-Déplacer/Copier1[1]', #216 ) ;
#77 = ORIENTED_EDGE ( 'NONE', *, *, #120, .F. ) ;
#78 = FACE_OUTER_BOUND ( 'NONE', #53, .T. ) ;
#79 = DIRECTION ( 'NONE',  ( -3.491481338843133355E-15, 1.224646799147353207E-16, -1.000000000000000000 ) ) ;
#80 = PRODUCT_DEFINITION_FORMATION_WITH_SPECIFIED_SOURCE ( 'ANY', '', #191, .NOT_KNOWN. ) ;
#81 = APPROVAL ( #222, 'UNSPECIFIED' ) ;
#82 = CARTESIAN_POINT ( 'NONE',  ( 4.978950731024088384E-14, -1.753717342272361478E-15, 14.26028166220648608 ) ) ;
#83 = CARTESIAN_POINT ( 'NONE',  ( 1.326762908760390423E-13, -4.653657836759941941E-15, 38.00000000000000000 ) ) ;
#84 = CARTESIAN_POINT ( 'NONE',  ( 3.910459099504309358E-14, 1.124819836996388827E-32, 11.19999999999999929 ) ) ;
#85 = CONICAL_SURFACE ( 'NONE', #174, 1.199999999999999956, 0.7853981633974453924 ) ;
#86 = MECHANICAL_CONTEXT ( 'NONE', #31, 'mechanical' ) ;
#87 = APPROVAL_ROLE ( '' ) ;
#88 = APPROVAL_ROLE ( '' ) ;
#89 = AXIS2_PLACEMENT_3D ( 'NONE', #198, #42, #214 ) ;
#90 = PERSON_AND_ORGANIZATION ( #125, #49 ) ;
#91 = APPLICATION_CONTEXT ( 'configuration controlled 3d designs of mechanical parts and assemblies' ) ;
#92 = PERSON_AND_ORGANIZATION ( #125, #49 ) ;
#93 = APPROVAL_ROLE ( '' ) ;
#94 = ORIENTED_EDGE ( 'NONE', *, *, #120, .T. ) ;
#95 = APPROVAL ( #35, 'UNSPECIFIED' ) ;
#96 = EDGE_LOOP ( 'NONE', ( #189 ) ) ;
#97 = FACE_OUTER_BOUND ( 'NONE', #173, .T. ) ;
#98 = DIRECTION ( 'NONE',  ( -3.491481338843133355E-15, 1.224646799147353207E-16, -1.000000000000000000 ) ) ;
#99 = FACE_OUTER_BOUND ( 'NONE', #170, .T. ) ;
#100 = LOCAL_TIME ( 11, 23, 7.000000000000000000, #223 ) ;
#101 = CARTESIAN_POINT ( 'NONE',  ( 1.316288464743861212E-13, -4.616918432785521081E-15, 37.69999999999999574 ) ) ;
#102 = FACE_OUTER_BOUND ( 'NONE', #74, .T. ) ;
#103 = CIRCLE ( 'NONE', #45, 0.6799999999999950528 ) ;
#104 = CARTESIAN_POINT ( 'NONE',  ( 8.641407909676746017E-16, -0.6799999999999950528, 0.2474997593010188623 ) ) ;
#105 = VERTEX_POINT ( 'NONE', #201 ) ;
#106 = COORDINATED_UNIVERSAL_TIME_OFFSET ( 1, 0, .AHEAD. ) ;
#107 = EDGE_LOOP ( 'NONE', ( #1 ) ) ;
#108 = CONICAL_SURFACE ( 'NONE', #212, 1.499999999999998668, 0.2617993877991500740 ) ;
#109 = ORIENTED_EDGE ( 'NONE', *, *, #199, .T. ) ;
#110 = ADVANCED_FACE ( 'NONE', ( #8 ), #39, .T. ) ;
#111 = FACE_BOUND ( 'NONE', #96, .T. ) ;
#112 = AXIS2_PLACEMENT_3D ( 'NONE', #83, #79, #149 ) ;
#113 = VERTEX_POINT ( 'NONE', #137 ) ;
#114 = DIRECTION ( 'NONE',  ( 4.275831445896958607E-31, 1.000000000000000000, 1.224646799147353207E-16 ) ) ;
#115 = VERTEX_POINT ( 'NONE', #177 ) ;
#116 = DIRECTION ( 'NONE',  ( 3.491481338843133355E-15, -1.229791517316362731E-16, 1.000000000000000000 ) ) ;
#117 = CLOSED_SHELL ( 'NONE', ( #110, #138, #187 ) ) ;
#118 = CARTESIAN_POINT ( 'NONE',  ( 3.910459099504309358E-14, -1.377366499394326377E-15, 11.19999999999999929 ) ) ;
#119 = CC_DESIGN_APPROVAL ( #81, ( #166 ) ) ;
#120 = EDGE_CURVE ( 'NONE', #113, #113, #197, .T. ) ;
#121 = SECURITY_CLASSIFICATION_LEVEL ( 'unclassified' ) ;
#122 = CALENDAR_DATE ( 2021, 28, 10 ) ;
#123 = APPROVAL_PERSON_ORGANIZATION ( #186, #95, #93 ) ;
#124 = ORIENTED_EDGE ( 'NONE', *, *, #194, .T. ) ;
#125 = PERSON ( 'UNSPECIFIED', 'UNSPECIFIED', 'UNSPECIFIED', ('UNSPECIFIED'), ('UNSPECIFIED'), ('UNSPECIFIED') ) ;
#126 = AXIS2_PLACEMENT_3D ( 'NONE', #84, #57, #217 ) ;
#127 = DIRECTION ( 'NONE',  ( -3.491481338843133355E-15, 1.224646799147353207E-16, -1.000000000000000000 ) ) ;
#128 = DIRECTION ( 'NONE',  ( 0.0000000000000000000, 1.000000000000000000, 0.0000000000000000000 ) ) ;
#129 = FACE_OUTER_BOUND ( 'NONE', #160, .T. ) ;
#130 = DIRECTION ( 'NONE',  ( 0.0000000000000000000, -1.000000000000000000, 0.0000000000000000000 ) ) ;
#131 = CIRCLE ( 'NONE', #10, 0.6799999999999950528 ) ;
#132 = VERTEX_POINT ( 'NONE', #200 ) ;
#133 = EDGE_CURVE ( 'NONE', #11, #11, #103, .T. ) ;
#134 =( LENGTH_UNIT ( ) NAMED_UNIT ( * ) SI_UNIT ( .MILLI., .METRE. ) );
#135 = CONICAL_SURFACE ( 'NONE', #20, 1.499999999999995559, 1.221730476396026388 ) ;
#136 = CARTESIAN_POINT ( 'NONE',  ( 0.0000000000000000000, 0.0000000000000000000, 0.0000000000000000000 ) ) ;
#137 = CARTESIAN_POINT ( 'NONE',  ( 4.978950731024088384E-14, 1.499999999999996891, 14.26028166220648608 ) ) ;
#138 = ADVANCED_FACE ( 'NONE', ( #102, #213 ), #59, .T. ) ;
#139 = DATE_AND_TIME ( #182, #171 ) ;
#140 = EDGE_LOOP ( 'NONE', ( #15 ) ) ;
#141 = ORIENTED_EDGE ( 'NONE', *, *, #64, .F. ) ;
#142 = CARTESIAN_POINT ( 'NONE',  ( 1.326762908760390423E-13, -4.653657836759941941E-15, 38.00000000000000000 ) ) ;
#143 = CC_DESIGN_PERSON_AND_ORGANIZATION_ASSIGNMENT ( #92, #184, ( #191 ) ) ;
#144 = FACE_BOUND ( 'NONE', #140, .T. ) ;
#145 = SHAPE_DEFINITION_REPRESENTATION ( #157, #61 ) ;
#146 = CARTESIAN_POINT ( 'NONE',  ( 0.0000000000000000000, 0.0000000000000000000, 0.0000000000000000000 ) ) ;
#147 = APPROVAL_DATE_TIME ( #169, #95 ) ;
#148 = CARTESIAN_POINT ( 'NONE',  ( 3.910459099504309358E-14, 1.124819836996388827E-32, 11.19999999999999929 ) ) ;
#149 = DIRECTION ( 'NONE',  ( 0.0000000000000000000, 1.000000000000000000, 0.0000000000000000000 ) ) ;
#150 = CARTESIAN_POINT ( 'NONE',  ( 1.906192921252232855E-15, -6.686024735685322183E-17, 0.5459553513993090634 ) ) ;
#151 = AXIS2_PLACEMENT_3D ( 'NONE', #146, #9, #196 ) ;
#152 = DATE_AND_TIME ( #43, #5 ) ;
#153 = PERSON_AND_ORGANIZATION ( #125, #49 ) ;
#154 = DATE_AND_TIME ( #12, #36 ) ;
#155 = CC_DESIGN_APPROVAL ( #95, ( #190 ) ) ;
#156 = AXIS2_PLACEMENT_3D ( 'NONE', #136, #70, #168 ) ;
#157 = PRODUCT_DEFINITION_SHAPE ( 'NONE', 'NONE',  #166 ) ;
#158 = ORIENTED_EDGE ( 'NONE', *, *, #29, .T. ) ;
#159 = CIRCLE ( 'NONE', #51, 0.6799999999999950528 ) ;
#160 = EDGE_LOOP ( 'NONE', ( #77 ) ) ;
#161 = DIRECTION ( 'NONE',  ( -3.491481338843133355E-15, 1.229791517316362731E-16, -1.000000000000000000 ) ) ;
#162 = CC_DESIGN_APPROVAL ( #58, ( #80 ) ) ;
#163 = DIRECTION ( 'NONE',  ( -3.491481338843133355E-15, 1.224646799147353207E-16, -1.000000000000000000 ) ) ;
#164 = PLANE ( 'NONE',  #73 ) ;
#165 = COORDINATED_UNIVERSAL_TIME_OFFSET ( 1, 0, .AHEAD. ) ;
#166 = PRODUCT_DEFINITION ( 'UNKNOWN', '', #80, #21 ) ;
#167 = VERTEX_POINT ( 'NONE', #104 ) ;
#168 = DIRECTION ( 'NONE',  ( 1.000000000000000000, 0.0000000000000000000, 0.0000000000000000000 ) ) ;
#169 = DATE_AND_TIME ( #122, #26 ) ;
#170 = EDGE_LOOP ( 'NONE', ( #141 ) ) ;
#171 = LOCAL_TIME ( 11, 23, 7.000000000000000000, #47 ) ;
#172 = ORIENTED_EDGE ( 'NONE', *, *, #199, .F. ) ;
#173 = EDGE_LOOP ( 'NONE', ( #208 ) ) ;
#174 = AXIS2_PLACEMENT_3D ( 'NONE', #142, #210, #55 ) ;
#175 = FACE_OUTER_BOUND ( 'NONE', #75, .T. ) ;
#176 = DIRECTION ( 'NONE',  ( -5.135813185032644414E-31, -1.000000000000000000, -1.445602896647343601E-16 ) ) ;
#177 = CARTESIAN_POINT ( 'NONE',  ( 1.316288464743861212E-13, 1.499999999999995337, 37.69999999999999574 ) ) ;
#178 = CC_DESIGN_DATE_AND_TIME_ASSIGNMENT ( #139, #13, ( #166 ) ) ;
#179 = DIRECTION ( 'NONE',  ( -4.275831445896958607E-31, -1.000000000000000000, -1.224646799147353207E-16 ) ) ;
#180 = DIRECTION ( 'NONE',  ( 0.0000000000000000000, 1.000000000000000000, 0.0000000000000000000 ) ) ;
#181 = ADVANCED_FACE ( 'NONE', ( #97 ), #211, .F. ) ;
#182 = CALENDAR_DATE ( 2021, 28, 10 ) ;
#183 = APPROVAL_STATUS ( 'not_yet_approved' ) ;
#184 = PERSON_AND_ORGANIZATION_ROLE ( 'design_owner' ) ;
#185 = PERSON_AND_ORGANIZATION ( #125, #49 ) ;
#186 = PERSON_AND_ORGANIZATION ( #125, #49 ) ;
#187 = ADVANCED_FACE ( 'NONE', ( #175 ), #135, .T. ) ;
#188 = ORIENTED_EDGE ( 'NONE', *, *, #194, .F. ) ;
#189 = ORIENTED_EDGE ( 'NONE', *, *, #64, .T. ) ;
#190 = SECURITY_CLASSIFICATION ( '', '', #121 ) ;
#191 = PRODUCT ( '962927', '962927', '', ( #86 ) ) ;
#192 = PRODUCT_RELATED_PRODUCT_CATEGORY ( 'detail', '', ( #191 ) ) ;
#193 = FACE_OUTER_BOUND ( 'NONE', #37, .T. ) ;
#194 = EDGE_CURVE ( 'NONE', #167, #167, #131, .T. ) ;
#195 = DIRECTION ( 'NONE',  ( 3.491481338843133355E-15, -1.224646799147353207E-16, 1.000000000000000000 ) ) ;
#196 = DIRECTION ( 'NONE',  ( 4.293794133377663121E-31, 1.000000000000000000, 1.229791517316362731E-16 ) ) ;
#197 = CIRCLE ( 'NONE', #89, 1.499999999999998668 ) ;
#198 = CARTESIAN_POINT ( 'NONE',  ( 4.978950731024088384E-14, -1.753717342272361478E-15, 14.26028166220648608 ) ) ;
#199 = EDGE_CURVE ( 'NONE', #105, #105, #159, .T. ) ;
#200 = CARTESIAN_POINT ( 'NONE',  ( 1.326762908760390423E-13, 1.199999999999995293, 38.00000000000000000 ) ) ;
#201 = CARTESIAN_POINT ( 'NONE',  ( 3.910459099504309358E-14, 0.6799999999999936096, 11.19999999999999929 ) ) ;
#202 = APPROVAL_PERSON_ORGANIZATION ( #65, #58, #88 ) ;
#203 = APPLICATION_PROTOCOL_DEFINITION ( 'international standard', 'config_control_design', 1994, #91 ) ;
#204 = CC_DESIGN_PERSON_AND_ORGANIZATION_ASSIGNMENT ( #66, #69, ( #80 ) ) ;
#205 = PERSON_AND_ORGANIZATION ( #125, #49 ) ;
#206 = DATE_AND_TIME ( #14, #100 ) ;
#207 = CIRCLE ( 'NONE', #112, 1.199999999999999956 ) ;
#208 = ORIENTED_EDGE ( 'NONE', *, *, #133, .T. ) ;
#209 = CC_DESIGN_DATE_AND_TIME_ASSIGNMENT ( #206, #50, ( #190 ) ) ;
#210 = DIRECTION ( 'NONE',  ( -3.491481338843133355E-15, 1.224646799147353207E-16, -1.000000000000000000 ) ) ;
#211 = PLANE ( 'NONE',  #126 ) ;
#212 = AXIS2_PLACEMENT_3D ( 'NONE', #82, #116, #130 ) ;
#213 = FACE_OUTER_BOUND ( 'NONE', #19, .T. ) ;
#214 = DIRECTION ( 'NONE',  ( 0.0000000000000000000, 1.000000000000000000, 0.0000000000000000000 ) ) ;
#215 = DIRECTION ( 'NONE',  ( 4.275831445896958607E-31, 1.000000000000000000, 1.224646799147353207E-16 ) ) ;
#216 = CLOSED_SHELL ( 'NONE', ( #22, #3, #7, #33, #181 ) ) ;
#217 = DIRECTION ( 'NONE',  ( -4.275831445896958607E-31, -1.000000000000000000, -1.224646799147353207E-16 ) ) ;
#218 = PERSON_AND_ORGANIZATION_ROLE ( 'creator' ) ;
#219 = CC_DESIGN_PERSON_AND_ORGANIZATION_ASSIGNMENT ( #90, #221, ( #166 ) ) ;
#220 = APPROVAL_DATE_TIME ( #154, #58 ) ;
#221 = PERSON_AND_ORGANIZATION_ROLE ( 'creator' ) ;
#222 = APPROVAL_STATUS ( 'not_yet_approved' ) ;
#223 = COORDINATED_UNIVERSAL_TIME_OFFSET ( 1, 0, .AHEAD. ) ;
ENDSEC;
END-ISO-10303-21;
