ISO-10303-21;
HEADER;
FILE_DESCRIPTION (( 'STEP AP203' ),
    '1' );
FILE_NAME ('962926.step',
    '2021-10-28T09:23:06',
    ( '' ),
    ( '' ),
    'SwSTEP 2.0',
    'SolidWorks 2019',
    '' );
FILE_SCHEMA (( 'CONFIG_CONTROL_DESIGN' ));
ENDSEC;

DATA;
#1 = APPROVAL_ROLE ( '' ) ;
#2 = CARTESIAN_POINT ( 'NONE',  ( 4.985465923899209211E-14, -1.756012164485032701E-15, 14.27894191624432985 ) ) ;
#3 = DATE_AND_TIME ( #152, #218 ) ;
#4 = FACE_OUTER_BOUND ( 'NONE', #11, .T. ) ;
#5 = ADVANCED_FACE ( 'NONE', ( #88 ), #35, .F. ) ;
#6 = DIRECTION ( 'NONE',  ( 0.0000000000000000000, 1.000000000000000000, 0.0000000000000000000 ) ) ;
#7 = CARTESIAN_POINT ( 'NONE',  ( 8.577868145635005448E-16, -0.6749999999999950484, 0.2456799081296878184 ) ) ;
#8 = CONICAL_SURFACE ( 'NONE', #172, 1.199999999999999956, 0.7853981633974453924 ) ;
#9 = LOCAL_TIME ( 11, 23, 6.000000000000000000, #137 ) ;
#10 = CARTESIAN_POINT ( 'NONE',  ( 1.326762908760390423E-13, 1.199999999999995293, 38.00000000000000000 ) ) ;
#11 = EDGE_LOOP ( 'NONE', ( #29 ) ) ;
#12 = CALENDAR_DATE ( 2021, 28, 10 ) ;
#13 = DATE_AND_TIME ( #92, #213 ) ;
#14 = EDGE_LOOP ( 'NONE', ( #79 ) ) ;
#15 = ORGANIZATION ( 'UNSPECIFIED', 'UNSPECIFIED', '' ) ;
#16 = AXIS2_PLACEMENT_3D ( 'NONE', #106, #154, #128 ) ;
#17 = CALENDAR_DATE ( 2021, 28, 10 ) ;
#18 = DIRECTION ( 'NONE',  ( -3.491481338843133355E-15, 1.224646799147353207E-16, -1.000000000000000000 ) ) ;
#19 = AXIS2_PLACEMENT_3D ( 'NONE', #193, #174, #170 ) ;
#20 = ADVANCED_FACE ( 'NONE', ( #68 ), #87, .F. ) ;
#21 = CC_DESIGN_DATE_AND_TIME_ASSIGNMENT ( #191, #208, ( #192 ) ) ;
#22 = CARTESIAN_POINT ( 'NONE',  ( 0.0000000000000000000, 0.0000000000000000000, 0.0000000000000000000 ) ) ;
#23 = APPLICATION_PROTOCOL_DEFINITION ( 'international standard', 'config_control_design', 1994, #129 ) ;
#24 = LOCAL_TIME ( 11, 23, 6.000000000000000000, #26 ) ;
#25 = CC_DESIGN_APPROVAL ( #127, ( #192 ) ) ;
#26 = COORDINATED_UNIVERSAL_TIME_OFFSET ( 1, 0, .AHEAD. ) ;
#27 = COORDINATED_UNIVERSAL_TIME_OFFSET ( 1, 0, .AHEAD. ) ;
#28 = FACE_OUTER_BOUND ( 'NONE', #161, .T. ) ;
#29 = ORIENTED_EDGE ( 'NONE', *, *, #117, .T. ) ;
#30 = PERSON_AND_ORGANIZATION_ROLE ( 'design_supplier' ) ;
#31 = EDGE_CURVE ( 'NONE', #182, #182, #185, .T. ) ;
#32 = CARTESIAN_POINT ( 'NONE',  ( 3.910459099504309358E-14, 1.124819836996388827E-32, 11.19999999999999929 ) ) ;
#33 = APPROVAL_STATUS ( 'not_yet_approved' ) ;
#34 = CARTESIAN_POINT ( 'NONE',  ( 1.906192921252232855E-15, -6.686024735685322183E-17, 0.5459553513993090634 ) ) ;
#35 = PLANE ( 'NONE',  #119 ) ;
#36 = EDGE_CURVE ( 'NONE', #39, #39, #147, .T. ) ;
#37 = DIRECTION ( 'NONE',  ( 0.0000000000000000000, 1.000000000000000000, 0.0000000000000000000 ) ) ;
#38 = ORIENTED_EDGE ( 'NONE', *, *, #31, .T. ) ;
#39 = VERTEX_POINT ( 'NONE', #74 ) ;
#40 = AXIS2_PLACEMENT_3D ( 'NONE', #69, #52, #37 ) ;
#41 = PERSON_AND_ORGANIZATION_ROLE ( 'creator' ) ;
#42 = DIRECTION ( 'NONE',  ( -3.491481338843133355E-15, 1.229791517316362731E-16, -1.000000000000000000 ) ) ;
#43 = CARTESIAN_POINT ( 'NONE',  ( 3.910459099504309358E-14, 0.6749999999999936051, 11.19999999999999929 ) ) ;
#44 = CIRCLE ( 'NONE', #201, 0.6749999999999950484 ) ;
#45 = CONICAL_SURFACE ( 'NONE', #194, 1.499999999999998668, 0.2617993877991500740 ) ;
#46 = CIRCLE ( 'NONE', #162, 0.6749999999999950484 ) ;
#47 = DIRECTION ( 'NONE',  ( 0.0000000000000000000, -1.000000000000000000, 0.0000000000000000000 ) ) ;
#48 = PRODUCT ( '962926', '962926', '', ( #215 ) ) ;
#49 = PERSON_AND_ORGANIZATION ( #145, #15 ) ;
#50 = DIRECTION ( 'NONE',  ( 0.0000000000000000000, 1.000000000000000000, 0.0000000000000000000 ) ) ;
#51 = APPROVAL_PERSON_ORGANIZATION ( #186, #100, #98 ) ;
#52 = DIRECTION ( 'NONE',  ( -3.491481338843133355E-15, 1.224646799147353207E-16, -1.000000000000000000 ) ) ;
#53 = ORIENTED_EDGE ( 'NONE', *, *, #36, .F. ) ;
#54 = PERSON_AND_ORGANIZATION_ROLE ( 'design_owner' ) ;
#55 = DATE_AND_TIME ( #12, #24 ) ;
#56 = EDGE_LOOP ( 'NONE', ( #120 ) ) ;
#57 = VERTEX_POINT ( 'NONE', #164 ) ;
#58 = PRODUCT_DEFINITION ( 'UNKNOWN', '', #150, #206 ) ;
#59 = CC_DESIGN_PERSON_AND_ORGANIZATION_ASSIGNMENT ( #78, #30, ( #150 ) ) ;
#60 = ORIENTED_EDGE ( 'NONE', *, *, #71, .T. ) ;
#61 = ORIENTED_EDGE ( 'NONE', *, *, #82, .T. ) ;
#62 = ADVANCED_FACE ( 'NONE', ( #4 ), #216, .T. ) ;
#63 = PRODUCT_RELATED_PRODUCT_CATEGORY ( 'detail', '', ( #48 ) ) ;
#64 = CARTESIAN_POINT ( 'NONE',  ( 8.577868145635008406E-16, -3.008711131058381054E-17, 0.2456799081296879295 ) ) ;
#65 = DIRECTION ( 'NONE',  ( 3.491481338843133355E-15, -1.229791517316362731E-16, 1.000000000000000000 ) ) ;
#66 = COORDINATED_UNIVERSAL_TIME_OFFSET ( 1, 0, .AHEAD. ) ;
#67 = DIRECTION ( 'NONE',  ( -4.275831445896958607E-31, -1.000000000000000000, -1.224646799147353207E-16 ) ) ;
#68 = FACE_OUTER_BOUND ( 'NONE', #14, .T. ) ;
#69 = CARTESIAN_POINT ( 'NONE',  ( 1.326762908760390423E-13, -4.653657836759941941E-15, 38.00000000000000000 ) ) ;
#70 = AXIS2_PLACEMENT_3D ( 'NONE', #171, #140, #209 ) ;
#71 = EDGE_CURVE ( 'NONE', #157, #157, #166, .T. ) ;
#72 = EDGE_LOOP ( 'NONE', ( #109 ) ) ;
#73 = EDGE_LOOP ( 'NONE', ( #223 ) ) ;
#74 = CARTESIAN_POINT ( 'NONE',  ( 1.316288464743861212E-13, 1.499999999999995337, 37.69999999999999574 ) ) ;
#75 = AXIS2_PLACEMENT_3D ( 'NONE', #91, #143, #90 ) ;
#76 = EDGE_LOOP ( 'NONE', ( #53 ) ) ;
#77 = LOCAL_TIME ( 11, 23, 6.000000000000000000, #66 ) ;
#78 = PERSON_AND_ORGANIZATION ( #145, #15 ) ;
#79 = ORIENTED_EDGE ( 'NONE', *, *, #81, .F. ) ;
#80 = EDGE_LOOP ( 'NONE', ( #61 ) ) ;
#81 = EDGE_CURVE ( 'NONE', #93, #93, #107, .T. ) ;
#82 = EDGE_CURVE ( 'NONE', #57, #57, #46, .T. ) ;
#83 = CC_DESIGN_APPROVAL ( #188, ( #58 ) ) ;
#84 = COORDINATED_UNIVERSAL_TIME_OFFSET ( 1, 0, .AHEAD. ) ;
#85 = CARTESIAN_POINT ( 'NONE',  ( 1.326762908760390423E-13, -4.653657836759941941E-15, 38.00000000000000000 ) ) ;
#86 = EDGE_LOOP ( 'NONE', ( #60 ) ) ;
#87 = PLANE ( 'NONE',  #133 ) ;
#88 = FACE_OUTER_BOUND ( 'NONE', #80, .T. ) ;
#89 = DIRECTION ( 'NONE',  ( -3.491481338843133355E-15, 1.229791517316362731E-16, -1.000000000000000000 ) ) ;
#90 = DIRECTION ( 'NONE',  ( 4.275831445896958607E-31, 1.000000000000000000, 1.224646799147353207E-16 ) ) ;
#91 = CARTESIAN_POINT ( 'NONE',  ( 0.0000000000000000000, 0.0000000000000000000, 0.0000000000000000000 ) ) ;
#92 = CALENDAR_DATE ( 2021, 28, 10 ) ;
#93 = VERTEX_POINT ( 'NONE', #10 ) ;
#94 = CC_DESIGN_SECURITY_CLASSIFICATION ( #192, ( #150 ) ) ;
#95 = ORIENTED_EDGE ( 'NONE', *, *, #117, .F. ) ;
#96 = APPLICATION_CONTEXT ( 'configuration controlled 3d designs of mechanical parts and assemblies' ) ;
#97 = CC_DESIGN_PERSON_AND_ORGANIZATION_ASSIGNMENT ( #101, #221, ( #150 ) ) ;
#98 = APPROVAL_ROLE ( '' ) ;
#99 = APPROVAL_DATE_TIME ( #3, #127 ) ;
#100 = APPROVAL ( #104, 'UNSPECIFIED' ) ;
#101 = PERSON_AND_ORGANIZATION ( #145, #15 ) ;
#102 = DATE_AND_TIME ( #139, #77 ) ;
#103 = FACE_OUTER_BOUND ( 'NONE', #76, .T. ) ;
#104 = APPROVAL_STATUS ( 'not_yet_approved' ) ;
#105 = DIRECTION ( 'NONE',  ( -5.135813185032644414E-31, -1.000000000000000000, -1.445602896647343601E-16 ) ) ;
#106 = CARTESIAN_POINT ( 'NONE',  ( 3.910459099504309358E-14, -1.377366499394326377E-15, 11.19999999999999929 ) ) ;
#107 = CIRCLE ( 'NONE', #40, 1.199999999999999956 ) ;
#108 =( GEOMETRIC_REPRESENTATION_CONTEXT ( 3 ) GLOBAL_UNCERTAINTY_ASSIGNED_CONTEXT ( ( #125 ) ) GLOBAL_UNIT_ASSIGNED_CONTEXT ( ( #199, #146, #200 ) ) REPRESENTATION_CONTEXT ( 'NONE', 'WORKASPACE' ) );
#109 = ORIENTED_EDGE ( 'NONE', *, *, #82, .F. ) ;
#110 = CARTESIAN_POINT ( 'NONE',  ( 3.910459099504309358E-14, -1.377366499394326377E-15, 11.19999999999999929 ) ) ;
#111 = CARTESIAN_POINT ( 'NONE',  ( 0.0000000000000000000, 0.0000000000000000000, 0.0000000000000000000 ) ) ;
#112 = PERSON_AND_ORGANIZATION ( #145, #15 ) ;
#113 = CYLINDRICAL_SURFACE ( 'NONE', #75, 1.499999999999998224 ) ;
#114 = FACE_OUTER_BOUND ( 'NONE', #124, .T. ) ;
#115 = DIRECTION ( 'NONE',  ( 1.000000000000000000, 0.0000000000000000000, 0.0000000000000000000 ) ) ;
#116 = ADVANCED_FACE ( 'NONE', ( #142, #207 ), #45, .T. ) ;
#117 = EDGE_CURVE ( 'NONE', #148, #148, #44, .T. ) ;
#118 = PRODUCT_DEFINITION_SHAPE ( 'NONE', 'NONE',  #58 ) ;
#119 = AXIS2_PLACEMENT_3D ( 'NONE', #155, #126, #210 ) ;
#120 = ORIENTED_EDGE ( 'NONE', *, *, #31, .F. ) ;
#121 = PLANE ( 'NONE',  #173 ) ;
#122 = CC_DESIGN_APPROVAL ( #100, ( #150 ) ) ;
#123 = FACE_OUTER_BOUND ( 'NONE', #184, .T. ) ;
#124 = EDGE_LOOP ( 'NONE', ( #204 ) ) ;
#125 = UNCERTAINTY_MEASURE_WITH_UNIT (LENGTH_MEASURE( 1.000000000000000082E-05 ), #199, 'distance_accuracy_value', 'NONE');
#126 = DIRECTION ( 'NONE',  ( 3.491481338843133355E-15, -1.224646799147353207E-16, 1.000000000000000000 ) ) ;
#127 = APPROVAL ( #33, 'UNSPECIFIED' ) ;
#128 = DIRECTION ( 'NONE',  ( 0.0000000000000000000, 1.000000000000000000, 0.0000000000000000000 ) ) ;
#129 = APPLICATION_CONTEXT ( 'configuration controlled 3d designs of mechanical parts and assemblies' ) ;
#130 = APPLICATION_PROTOCOL_DEFINITION ( 'international standard', 'config_control_design', 1994, #96 ) ;
#131 = APPROVAL_DATE_TIME ( #55, #188 ) ;
#132 = CLOSED_SHELL ( 'NONE', ( #163, #195, #62 ) ) ;
#133 = AXIS2_PLACEMENT_3D ( 'NONE', #153, #156, #141 ) ;
#134 = APPROVAL_PERSON_ORGANIZATION ( #135, #127, #1 ) ;
#135 = PERSON_AND_ORGANIZATION ( #145, #15 ) ;
#136 = DIRECTION ( 'NONE',  ( 3.491481338843133355E-15, -1.224646799147353207E-16, 1.000000000000000000 ) ) ;
#137 = COORDINATED_UNIVERSAL_TIME_OFFSET ( 1, 0, .AHEAD. ) ;
#138 = DIRECTION ( 'NONE',  ( -3.491481338843133355E-15, 1.224646799147353207E-16, -1.000000000000000000 ) ) ;
#139 = CALENDAR_DATE ( 2021, 28, 10 ) ;
#140 = DIRECTION ( 'NONE',  ( -3.491481338843133355E-15, 1.224646799147353207E-16, -1.000000000000000000 ) ) ;
#141 = DIRECTION ( 'NONE',  ( 4.275831445896958607E-31, 1.000000000000000000, 1.224646799147353207E-16 ) ) ;
#142 = FACE_BOUND ( 'NONE', #72, .T. ) ;
#143 = DIRECTION ( 'NONE',  ( -3.491481338843133355E-15, 1.224646799147353207E-16, -1.000000000000000000 ) ) ;
#144 = ORIENTED_EDGE ( 'NONE', *, *, #81, .T. ) ;
#145 = PERSON ( 'UNSPECIFIED', 'UNSPECIFIED', 'UNSPECIFIED', ('UNSPECIFIED'), ('UNSPECIFIED'), ('UNSPECIFIED') ) ;
#146 =( NAMED_UNIT ( * ) PLANE_ANGLE_UNIT ( ) SI_UNIT ( $, .RADIAN. ) );
#147 = CIRCLE ( 'NONE', #70, 1.499999999999999778 ) ;
#148 = VERTEX_POINT ( 'NONE', #7 ) ;
#149 = CC_DESIGN_PERSON_AND_ORGANIZATION_ASSIGNMENT ( #49, #167, ( #192 ) ) ;
#150 = PRODUCT_DEFINITION_FORMATION_WITH_SPECIFIED_SOURCE ( 'ANY', '', #48, .NOT_KNOWN. ) ;
#151 = AXIS2_PLACEMENT_3D ( 'NONE', #111, #176, #115 ) ;
#152 = CALENDAR_DATE ( 2021, 28, 10 ) ;
#153 = CARTESIAN_POINT ( 'NONE',  ( 1.326762908760390423E-13, 8.998558695971077224E-33, 38.00000000000000000 ) ) ;
#154 = DIRECTION ( 'NONE',  ( -3.491481338843133355E-15, 1.229791517316362731E-16, -1.000000000000000000 ) ) ;
#155 = CARTESIAN_POINT ( 'NONE',  ( 3.910459099504309358E-14, 1.124819836996388827E-32, 11.19999999999999929 ) ) ;
#156 = DIRECTION ( 'NONE',  ( -3.491481338843133355E-15, 1.224646799147353207E-16, -1.000000000000000000 ) ) ;
#157 = VERTEX_POINT ( 'NONE', #214 ) ;
#158 = FACE_OUTER_BOUND ( 'NONE', #73, .T. ) ;
#159 = CYLINDRICAL_SURFACE ( 'NONE', #202, 0.6749999999999950484 ) ;
#160 = DIRECTION ( 'NONE',  ( 4.293794133377662246E-31, 1.000000000000000000, 1.229791517316362731E-16 ) ) ;
#161 = EDGE_LOOP ( 'NONE', ( #95 ) ) ;
#162 = AXIS2_PLACEMENT_3D ( 'NONE', #110, #89, #6 ) ;
#163 = ADVANCED_FACE ( 'NONE', ( #205 ), #121, .T. ) ;
#164 = CARTESIAN_POINT ( 'NONE',  ( 3.910459099504309358E-14, 0.6749999999999936051, 11.19999999999999929 ) ) ;
#165 = APPROVAL_PERSON_ORGANIZATION ( #196, #188, #180 ) ;
#166 = CIRCLE ( 'NONE', #19, 1.499999999999998668 ) ;
#167 = PERSON_AND_ORGANIZATION_ROLE ( 'classification_officer' ) ;
#168 = FACE_BOUND ( 'NONE', #198, .T. ) ;
#169 = SHAPE_DEFINITION_REPRESENTATION ( #118, #183 ) ;
#170 = DIRECTION ( 'NONE',  ( 0.0000000000000000000, 1.000000000000000000, 0.0000000000000000000 ) ) ;
#171 = CARTESIAN_POINT ( 'NONE',  ( 1.316288464743861212E-13, -4.616918432785521081E-15, 37.69999999999999574 ) ) ;
#172 = AXIS2_PLACEMENT_3D ( 'NONE', #85, #138, #50 ) ;
#173 = AXIS2_PLACEMENT_3D ( 'NONE', #32, #190, #67 ) ;
#174 = DIRECTION ( 'NONE',  ( -3.491481338843133355E-15, 1.229791517316362731E-16, -1.000000000000000000 ) ) ;
#175 = DIRECTION ( 'NONE',  ( -4.279844320860555550E-31, -1.000000000000000000, -1.606225440719277707E-16 ) ) ;
#176 = DIRECTION ( 'NONE',  ( 0.0000000000000000000, 0.0000000000000000000, 1.000000000000000000 ) ) ;
#177 = ADVANCED_FACE ( 'NONE', ( #103, #168 ), #8, .T. ) ;
#178 = AXIS2_PLACEMENT_3D ( 'NONE', #34, #136, #105 ) ;
#179 = APPROVAL_STATUS ( 'not_yet_approved' ) ;
#180 = APPROVAL_ROLE ( '' ) ;
#181 = CC_DESIGN_DATE_AND_TIME_ASSIGNMENT ( #13, #217, ( #58 ) ) ;
#182 = VERTEX_POINT ( 'NONE', #43 ) ;
#183 = ADVANCED_BREP_SHAPE_REPRESENTATION ( '962926', ( #220, #219, #151 ), #108 ) ;
#184 = EDGE_LOOP ( 'NONE', ( #38 ) ) ;
#185 = CIRCLE ( 'NONE', #16, 0.6749999999999950484 ) ;
#186 = PERSON_AND_ORGANIZATION ( #145, #15 ) ;
#187 = APPROVAL_DATE_TIME ( #102, #100 ) ;
#188 = APPROVAL ( #179, 'UNSPECIFIED' ) ;
#189 = SECURITY_CLASSIFICATION_LEVEL ( 'unclassified' ) ;
#190 = DIRECTION ( 'NONE',  ( 3.491481338843133355E-15, -1.224646799147353207E-16, 1.000000000000000000 ) ) ;
#191 = DATE_AND_TIME ( #17, #9 ) ;
#192 = SECURITY_CLASSIFICATION ( '', '', #189 ) ;
#193 = CARTESIAN_POINT ( 'NONE',  ( 4.985465923899209211E-14, -1.756012164485032701E-15, 14.27894191624432985 ) ) ;
#194 = AXIS2_PLACEMENT_3D ( 'NONE', #2, #65, #47 ) ;
#195 = ADVANCED_FACE ( 'NONE', ( #123, #28 ), #159, .T. ) ;
#196 = PERSON_AND_ORGANIZATION ( #145, #15 ) ;
#197 = PERSON_AND_ORGANIZATION ( #145, #15 ) ;
#198 = EDGE_LOOP ( 'NONE', ( #144 ) ) ;
#199 =( LENGTH_UNIT ( ) NAMED_UNIT ( * ) SI_UNIT ( .MILLI., .METRE. ) );
#200 =( NAMED_UNIT ( * ) SI_UNIT ( $, .STERADIAN. ) SOLID_ANGLE_UNIT ( ) );
#201 = AXIS2_PLACEMENT_3D ( 'NONE', #64, #18, #175 ) ;
#202 = AXIS2_PLACEMENT_3D ( 'NONE', #22, #42, #160 ) ;
#203 = CC_DESIGN_PERSON_AND_ORGANIZATION_ASSIGNMENT ( #197, #41, ( #58 ) ) ;
#204 = ORIENTED_EDGE ( 'NONE', *, *, #71, .F. ) ;
#205 = FACE_OUTER_BOUND ( 'NONE', #56, .T. ) ;
#206 = DESIGN_CONTEXT ( 'detailed design', #96, 'design' ) ;
#207 = FACE_OUTER_BOUND ( 'NONE', #86, .T. ) ;
#208 = DATE_TIME_ROLE ( 'classification_date' ) ;
#209 = DIRECTION ( 'NONE',  ( 0.0000000000000000000, 1.000000000000000000, 0.0000000000000000000 ) ) ;
#210 = DIRECTION ( 'NONE',  ( -4.275831445896958607E-31, -1.000000000000000000, -1.224646799147353207E-16 ) ) ;
#211 = CLOSED_SHELL ( 'NONE', ( #212, #177, #20, #116, #5 ) ) ;
#212 = ADVANCED_FACE ( 'NONE', ( #114, #158 ), #113, .T. ) ;
#213 = LOCAL_TIME ( 11, 23, 6.000000000000000000, #27 ) ;
#214 = CARTESIAN_POINT ( 'NONE',  ( 4.985465923899209211E-14, 1.499999999999996891, 14.27894191624432985 ) ) ;
#215 = MECHANICAL_CONTEXT ( 'NONE', #129, 'mechanical' ) ;
#216 = CONICAL_SURFACE ( 'NONE', #178, 1.499999999999995559, 1.221730476396026388 ) ;
#217 = DATE_TIME_ROLE ( 'creation_date' ) ;
#218 = LOCAL_TIME ( 11, 23, 6.000000000000000000, #84 ) ;
#219 = MANIFOLD_SOLID_BREP ( 'Corps-Déplacer/Copier1[2]', #132 ) ;
#220 = MANIFOLD_SOLID_BREP ( 'Corps-Déplacer/Copier1[1]', #211 ) ;
#221 = PERSON_AND_ORGANIZATION_ROLE ( 'creator' ) ;
#222 = CC_DESIGN_PERSON_AND_ORGANIZATION_ASSIGNMENT ( #112, #54, ( #48 ) ) ;
#223 = ORIENTED_EDGE ( 'NONE', *, *, #36, .T. ) ;
ENDSEC;
END-ISO-10303-21;
