ISO-10303-21;
HEADER;
FILE_DESCRIPTION (( 'STEP AP203' ),
    '1' );
FILE_NAME ('962925.step',
    '2021-10-28T09:23:05',
    ( '' ),
    ( '' ),
    'SwSTEP 2.0',
    'SolidWorks 2019',
    '' );
FILE_SCHEMA (( 'CONFIG_CONTROL_DESIGN' ));
ENDSEC;

DATA;
#1 = CARTESIAN_POINT ( 'NONE',  ( 4.991981116774329407E-14, 1.499999999999996891, 14.29760217028217362 ) ) ;
#2 = DIRECTION ( 'NONE',  ( -4.311783457583395667E-31, -1.000000000000000000, -1.213659148304678098E-16 ) ) ;
#3 = DIRECTION ( 'NONE',  ( 4.275831445896958607E-31, 1.000000000000000000, 1.224646799147353207E-16 ) ) ;
#4 = APPROVAL_STATUS ( 'not_yet_approved' ) ;
#5 = PERSON_AND_ORGANIZATION_ROLE ( 'creator' ) ;
#6 = PERSON_AND_ORGANIZATION_ROLE ( 'classification_officer' ) ;
#7 =( NAMED_UNIT ( * ) PLANE_ANGLE_UNIT ( ) SI_UNIT ( $, .RADIAN. ) );
#8 = APPROVAL_DATE_TIME ( #124, #22 ) ;
#9 =( NAMED_UNIT ( * ) SI_UNIT ( $, .STERADIAN. ) SOLID_ANGLE_UNIT ( ) );
#10 = APPROVAL_ROLE ( '' ) ;
#11 = ORIENTED_EDGE ( 'NONE', *, *, #91, .T. ) ;
#12 = APPROVAL_PERSON_ORGANIZATION ( #127, #90, #10 ) ;
#13 = PRODUCT_DEFINITION_FORMATION_WITH_SPECIFIED_SOURCE ( 'ANY', '', #133, .NOT_KNOWN. ) ;
#14 = DIRECTION ( 'NONE',  ( 0.0000000000000000000, 1.000000000000000000, 0.0000000000000000000 ) ) ;
#15 = PLANE ( 'NONE',  #216 ) ;
#16 = CARTESIAN_POINT ( 'NONE',  ( 1.326762908760390423E-13, 8.998558695971077224E-33, 38.00000000000000000 ) ) ;
#17 = AXIS2_PLACEMENT_3D ( 'NONE', #71, #18, #93 ) ;
#18 = DIRECTION ( 'NONE',  ( -3.491481338843133355E-15, 1.224646799147353207E-16, -1.000000000000000000 ) ) ;
#19 = DIRECTION ( 'NONE',  ( 0.0000000000000000000, 1.000000000000000000, 0.0000000000000000000 ) ) ;
#20 = CIRCLE ( 'NONE', #176, 1.499999999999998668 ) ;
#21 = CC_DESIGN_PERSON_AND_ORGANIZATION_ASSIGNMENT ( #45, #95, ( #66 ) ) ;
#22 = APPROVAL ( #4, 'UNSPECIFIED' ) ;
#23 = SECURITY_CLASSIFICATION ( '', '', #159 ) ;
#24 = COORDINATED_UNIVERSAL_TIME_OFFSET ( 1, 0, .AHEAD. ) ;
#25 = EDGE_LOOP ( 'NONE', ( #115 ) ) ;
#26 = CARTESIAN_POINT ( 'NONE',  ( 3.910459099504309358E-14, 1.124819836996388827E-32, 11.19999999999999929 ) ) ;
#27 = ORGANIZATION ( 'UNSPECIFIED', 'UNSPECIFIED', '' ) ;
#28 = ORIENTED_EDGE ( 'NONE', *, *, #125, .F. ) ;
#29 = DIRECTION ( 'NONE',  ( 1.000000000000000000, 0.0000000000000000000, 0.0000000000000000000 ) ) ;
#30 = CC_DESIGN_PERSON_AND_ORGANIZATION_ASSIGNMENT ( #110, #212, ( #133 ) ) ;
#31 = CALENDAR_DATE ( 2021, 28, 10 ) ;
#32 = DIRECTION ( 'NONE',  ( 3.491481338843133355E-15, -1.229791517316362731E-16, 1.000000000000000000 ) ) ;
#33 = CARTESIAN_POINT ( 'NONE',  ( 3.910459099504309358E-14, 0.6699999999999936007, 11.19999999999999929 ) ) ;
#34 = DIRECTION ( 'NONE',  ( 0.0000000000000000000, 1.000000000000000000, 0.0000000000000000000 ) ) ;
#35 = PLANE ( 'NONE',  #182 ) ;
#36 = ADVANCED_FACE ( 'NONE', ( #214 ), #177, .T. ) ;
#37 = CARTESIAN_POINT ( 'NONE',  ( 8.514328381593264879E-16, -0.6699999999999950440, 0.2438600569583568300 ) ) ;
#38 = APPROVAL_PERSON_ORGANIZATION ( #196, #178, #78 ) ;
#39 = APPROVAL_STATUS ( 'not_yet_approved' ) ;
#40 = DATE_TIME_ROLE ( 'creation_date' ) ;
#41 = ADVANCED_FACE ( 'NONE', ( #148, #218 ), #161, .T. ) ;
#42 = CLOSED_SHELL ( 'NONE', ( #36, #174, #194 ) ) ;
#43 = LOCAL_TIME ( 11, 23, 5.000000000000000000, #74 ) ;
#44 = PERSON_AND_ORGANIZATION ( #195, #27 ) ;
#45 = PERSON_AND_ORGANIZATION ( #195, #27 ) ;
#46 = EDGE_LOOP ( 'NONE', ( #79 ) ) ;
#47 = CIRCLE ( 'NONE', #198, 1.199999999999999956 ) ;
#48 = DIRECTION ( 'NONE',  ( 3.491481338843133355E-15, -1.224646799147353207E-16, 1.000000000000000000 ) ) ;
#49 = CC_DESIGN_SECURITY_CLASSIFICATION ( #23, ( #13 ) ) ;
#50 = EDGE_LOOP ( 'NONE', ( #142 ) ) ;
#51 = UNCERTAINTY_MEASURE_WITH_UNIT (LENGTH_MEASURE( 1.000000000000000082E-05 ), #112, 'distance_accuracy_value', 'NONE');
#52 = CIRCLE ( 'NONE', #54, 0.6699999999999950440 ) ;
#53 = CARTESIAN_POINT ( 'NONE',  ( 1.326762908760390423E-13, 1.199999999999995293, 38.00000000000000000 ) ) ;
#54 = AXIS2_PLACEMENT_3D ( 'NONE', #73, #121, #14 ) ;
#55 = FACE_OUTER_BOUND ( 'NONE', #173, .T. ) ;
#56 = CARTESIAN_POINT ( 'NONE',  ( 4.991981116774329407E-14, -1.758306986697703333E-15, 14.29760217028217362 ) ) ;
#57 = DIRECTION ( 'NONE',  ( 0.0000000000000000000, -1.000000000000000000, 0.0000000000000000000 ) ) ;
#58 = DIRECTION ( 'NONE',  ( -3.491481338843133355E-15, 1.229791517316362731E-16, -1.000000000000000000 ) ) ;
#59 = DATE_AND_TIME ( #190, #140 ) ;
#60 = CLOSED_SHELL ( 'NONE', ( #149, #41, #116, #117, #81 ) ) ;
#61 = DATE_AND_TIME ( #96, #64 ) ;
#62 = DATE_TIME_ROLE ( 'classification_date' ) ;
#63 = CC_DESIGN_DATE_AND_TIME_ASSIGNMENT ( #143, #62, ( #23 ) ) ;
#64 = LOCAL_TIME ( 11, 23, 5.000000000000000000, #141 ) ;
#65 = EDGE_LOOP ( 'NONE', ( #129 ) ) ;
#66 = PRODUCT_DEFINITION ( 'UNKNOWN', '', #13, #180 ) ;
#67 = CC_DESIGN_APPROVAL ( #90, ( #23 ) ) ;
#68 = DIRECTION ( 'NONE',  ( -3.491481338843133355E-15, 1.224646799147353207E-16, -1.000000000000000000 ) ) ;
#69 = DIRECTION ( 'NONE',  ( 3.491481338843133355E-15, -1.224646799147353207E-16, 1.000000000000000000 ) ) ;
#70 = EDGE_CURVE ( 'NONE', #204, #204, #20, .T. ) ;
#71 = CARTESIAN_POINT ( 'NONE',  ( 1.316288464743861212E-13, -4.616918432785521081E-15, 37.69999999999999574 ) ) ;
#72 = DIRECTION ( 'NONE',  ( -3.491481338843133355E-15, 1.224646799147353207E-16, -1.000000000000000000 ) ) ;
#73 = CARTESIAN_POINT ( 'NONE',  ( 3.910459099504309358E-14, -1.377366499394326377E-15, 11.19999999999999929 ) ) ;
#74 = COORDINATED_UNIVERSAL_TIME_OFFSET ( 1, 0, .AHEAD. ) ;
#75 = APPLICATION_PROTOCOL_DEFINITION ( 'international standard', 'config_control_design', 1994, #203 ) ;
#76 = APPROVAL_PERSON_ORGANIZATION ( #44, #22, #97 ) ;
#77 = DIRECTION ( 'NONE',  ( 0.0000000000000000000, 0.0000000000000000000, 1.000000000000000000 ) ) ;
#78 = APPROVAL_ROLE ( '' ) ;
#79 = ORIENTED_EDGE ( 'NONE', *, *, #220, .T. ) ;
#80 = CIRCLE ( 'NONE', #205, 0.6699999999999950440 ) ;
#81 = ADVANCED_FACE ( 'NONE', ( #186 ), #15, .F. ) ;
#82 = CALENDAR_DATE ( 2021, 28, 10 ) ;
#83 = ADVANCED_BREP_SHAPE_REPRESENTATION ( '962925', ( #215, #207, #200 ), #123 ) ;
#84 = DIRECTION ( 'NONE',  ( -4.275831445896958607E-31, -1.000000000000000000, -1.224646799147353207E-16 ) ) ;
#85 = COORDINATED_UNIVERSAL_TIME_OFFSET ( 1, 0, .AHEAD. ) ;
#86 = CC_DESIGN_APPROVAL ( #178, ( #66 ) ) ;
#87 = FACE_OUTER_BOUND ( 'NONE', #131, .T. ) ;
#88 = DATE_AND_TIME ( #31, #168 ) ;
#89 = CARTESIAN_POINT ( 'NONE',  ( 0.0000000000000000000, 0.0000000000000000000, 0.0000000000000000000 ) ) ;
#90 = APPROVAL ( #199, 'UNSPECIFIED' ) ;
#91 = EDGE_CURVE ( 'NONE', #118, #118, #47, .T. ) ;
#92 = FACE_OUTER_BOUND ( 'NONE', #25, .T. ) ;
#93 = DIRECTION ( 'NONE',  ( 0.0000000000000000000, 1.000000000000000000, 0.0000000000000000000 ) ) ;
#94 = DIRECTION ( 'NONE',  ( -3.491481338843133355E-15, 1.224646799147353207E-16, -1.000000000000000000 ) ) ;
#95 = PERSON_AND_ORGANIZATION_ROLE ( 'creator' ) ;
#96 = CALENDAR_DATE ( 2021, 28, 10 ) ;
#97 = APPROVAL_ROLE ( '' ) ;
#98 = VERTEX_POINT ( 'NONE', #172 ) ;
#99 = AXIS2_PLACEMENT_3D ( 'NONE', #89, #58, #184 ) ;
#100 = CC_DESIGN_PERSON_AND_ORGANIZATION_ASSIGNMENT ( #192, #109, ( #13 ) ) ;
#101 = FACE_BOUND ( 'NONE', #128, .T. ) ;
#102 = LOCAL_TIME ( 11, 23, 5.000000000000000000, #24 ) ;
#103 = CC_DESIGN_DATE_AND_TIME_ASSIGNMENT ( #59, #40, ( #66 ) ) ;
#104 = DIRECTION ( 'NONE',  ( -3.491481338843133355E-15, 1.224646799147353207E-16, -1.000000000000000000 ) ) ;
#105 = AXIS2_PLACEMENT_3D ( 'NONE', #219, #68, #2 ) ;
#106 = CARTESIAN_POINT ( 'NONE',  ( 3.910459099504309358E-14, 1.124819836996388827E-32, 11.19999999999999929 ) ) ;
#107 = DIRECTION ( 'NONE',  ( 0.0000000000000000000, 1.000000000000000000, 0.0000000000000000000 ) ) ;
#108 = AXIS2_PLACEMENT_3D ( 'NONE', #151, #69, #150 ) ;
#109 = PERSON_AND_ORGANIZATION_ROLE ( 'design_supplier' ) ;
#110 = PERSON_AND_ORGANIZATION ( #195, #27 ) ;
#111 = ORIENTED_EDGE ( 'NONE', *, *, #220, .F. ) ;
#112 =( LENGTH_UNIT ( ) NAMED_UNIT ( * ) SI_UNIT ( .MILLI., .METRE. ) );
#113 = EDGE_LOOP ( 'NONE', ( #28 ) ) ;
#114 = EDGE_LOOP ( 'NONE', ( #179 ) ) ;
#115 = ORIENTED_EDGE ( 'NONE', *, *, #125, .T. ) ;
#116 = ADVANCED_FACE ( 'NONE', ( #55 ), #35, .F. ) ;
#117 = ADVANCED_FACE ( 'NONE', ( #101, #169 ), #147, .T. ) ;
#118 = VERTEX_POINT ( 'NONE', #53 ) ;
#119 = CC_DESIGN_APPROVAL ( #22, ( #13 ) ) ;
#120 = SHAPE_DEFINITION_REPRESENTATION ( #191, #83 ) ;
#121 = DIRECTION ( 'NONE',  ( -3.491481338843133355E-15, 1.229791517316362731E-16, -1.000000000000000000 ) ) ;
#122 = CARTESIAN_POINT ( 'NONE',  ( 0.0000000000000000000, 0.0000000000000000000, 0.0000000000000000000 ) ) ;
#123 =( GEOMETRIC_REPRESENTATION_CONTEXT ( 3 ) GLOBAL_UNCERTAINTY_ASSIGNED_CONTEXT ( ( #51 ) ) GLOBAL_UNIT_ASSIGNED_CONTEXT ( ( #112, #7, #9 ) ) REPRESENTATION_CONTEXT ( 'NONE', 'WORKASPACE' ) );
#124 = DATE_AND_TIME ( #157, #43 ) ;
#125 = EDGE_CURVE ( 'NONE', #183, #183, #52, .T. ) ;
#126 = ORIENTED_EDGE ( 'NONE', *, *, #202, .F. ) ;
#127 = PERSON_AND_ORGANIZATION ( #195, #27 ) ;
#128 = EDGE_LOOP ( 'NONE', ( #111 ) ) ;
#129 = ORIENTED_EDGE ( 'NONE', *, *, #70, .F. ) ;
#130 = CIRCLE ( 'NONE', #17, 1.499999999999999778 ) ;
#131 = EDGE_LOOP ( 'NONE', ( #126 ) ) ;
#132 = AXIS2_PLACEMENT_3D ( 'NONE', #26, #48, #84 ) ;
#133 = PRODUCT ( '962925', '962925', '', ( #201 ) ) ;
#134 = CARTESIAN_POINT ( 'NONE',  ( 3.910459099504309358E-14, -1.377366499394326377E-15, 11.19999999999999929 ) ) ;
#135 = DIRECTION ( 'NONE',  ( -4.275831445896958607E-31, -1.000000000000000000, -1.224646799147353207E-16 ) ) ;
#136 = CARTESIAN_POINT ( 'NONE',  ( 1.316288464743861212E-13, 1.499999999999995337, 37.69999999999999574 ) ) ;
#137 = FACE_OUTER_BOUND ( 'NONE', #65, .T. ) ;
#138 = CC_DESIGN_PERSON_AND_ORGANIZATION_ASSIGNMENT ( #175, #5, ( #13 ) ) ;
#139 = CARTESIAN_POINT ( 'NONE',  ( 1.326762908760390423E-13, -4.653657836759941941E-15, 38.00000000000000000 ) ) ;
#140 = LOCAL_TIME ( 11, 23, 5.000000000000000000, #155 ) ;
#141 = COORDINATED_UNIVERSAL_TIME_OFFSET ( 1, 0, .AHEAD. ) ;
#142 = ORIENTED_EDGE ( 'NONE', *, *, #185, .F. ) ;
#143 = DATE_AND_TIME ( #82, #102 ) ;
#144 = EDGE_LOOP ( 'NONE', ( #11 ) ) ;
#145 = ORIENTED_EDGE ( 'NONE', *, *, #185, .T. ) ;
#146 = ORIENTED_EDGE ( 'NONE', *, *, #70, .T. ) ;
#147 = CONICAL_SURFACE ( 'NONE', #187, 1.499999999999998668, 0.2617993877991501295 ) ;
#148 = FACE_OUTER_BOUND ( 'NONE', #50, .T. ) ;
#149 = ADVANCED_FACE ( 'NONE', ( #137, #153 ), #167, .T. ) ;
#150 = DIRECTION ( 'NONE',  ( -5.135813185032644414E-31, -1.000000000000000000, -1.445602896647343601E-16 ) ) ;
#151 = CARTESIAN_POINT ( 'NONE',  ( 1.906192921252232855E-15, -6.686024735685322183E-17, 0.5459553513993090634 ) ) ;
#152 = DIRECTION ( 'NONE',  ( -3.491481338843133355E-15, 1.229791517316362731E-16, -1.000000000000000000 ) ) ;
#153 = FACE_OUTER_BOUND ( 'NONE', #160, .T. ) ;
#154 = DIRECTION ( 'NONE',  ( 0.0000000000000000000, 1.000000000000000000, 0.0000000000000000000 ) ) ;
#155 = COORDINATED_UNIVERSAL_TIME_OFFSET ( 1, 0, .AHEAD. ) ;
#156 = AXIS2_PLACEMENT_3D ( 'NONE', #139, #72, #154 ) ;
#157 = CALENDAR_DATE ( 2021, 28, 10 ) ;
#158 = CARTESIAN_POINT ( 'NONE',  ( 0.0000000000000000000, 0.0000000000000000000, 0.0000000000000000000 ) ) ;
#159 = SECURITY_CLASSIFICATION_LEVEL ( 'unclassified' ) ;
#160 = EDGE_LOOP ( 'NONE', ( #145 ) ) ;
#161 = CONICAL_SURFACE ( 'NONE', #156, 1.199999999999999956, 0.7853981633974453924 ) ;
#162 = PRODUCT_RELATED_PRODUCT_CATEGORY ( 'detail', '', ( #133 ) ) ;
#163 = DIRECTION ( 'NONE',  ( 4.275831445896958607E-31, 1.000000000000000000, 1.224646799147353207E-16 ) ) ;
#164 = DIRECTION ( 'NONE',  ( -3.491481338843133355E-15, 1.229791517316362731E-16, -1.000000000000000000 ) ) ;
#165 = CARTESIAN_POINT ( 'NONE',  ( 4.991981116774329407E-14, -1.758306986697703333E-15, 14.29760217028217362 ) ) ;
#166 = CIRCLE ( 'NONE', #105, 0.6699999999999950440 ) ;
#167 = CYLINDRICAL_SURFACE ( 'NONE', #170, 1.499999999999998224 ) ;
#168 = LOCAL_TIME ( 11, 23, 5.000000000000000000, #85 ) ;
#169 = FACE_OUTER_BOUND ( 'NONE', #217, .T. ) ;
#170 = AXIS2_PLACEMENT_3D ( 'NONE', #122, #104, #163 ) ;
#171 = PERSON_AND_ORGANIZATION ( #195, #27 ) ;
#172 = CARTESIAN_POINT ( 'NONE',  ( 3.910459099504309358E-14, 0.6699999999999936007, 11.19999999999999929 ) ) ;
#173 = EDGE_LOOP ( 'NONE', ( #197 ) ) ;
#174 = ADVANCED_FACE ( 'NONE', ( #92, #87 ), #223, .T. ) ;
#175 = PERSON_AND_ORGANIZATION ( #195, #27 ) ;
#176 = AXIS2_PLACEMENT_3D ( 'NONE', #165, #164, #107 ) ;
#177 = PLANE ( 'NONE',  #132 ) ;
#178 = APPROVAL ( #39, 'UNSPECIFIED' ) ;
#179 = ORIENTED_EDGE ( 'NONE', *, *, #202, .T. ) ;
#180 = DESIGN_CONTEXT ( 'detailed design', #221, 'design' ) ;
#181 = DIRECTION ( 'NONE',  ( -3.491481338843133355E-15, 1.224646799147353207E-16, -1.000000000000000000 ) ) ;
#182 = AXIS2_PLACEMENT_3D ( 'NONE', #16, #181, #3 ) ;
#183 = VERTEX_POINT ( 'NONE', #33 ) ;
#184 = DIRECTION ( 'NONE',  ( 4.293794133377662246E-31, 1.000000000000000000, 1.229791517316362731E-16 ) ) ;
#185 = EDGE_CURVE ( 'NONE', #209, #209, #130, .T. ) ;
#186 = FACE_OUTER_BOUND ( 'NONE', #46, .T. ) ;
#187 = AXIS2_PLACEMENT_3D ( 'NONE', #56, #32, #57 ) ;
#188 = VERTEX_POINT ( 'NONE', #37 ) ;
#189 = APPLICATION_PROTOCOL_DEFINITION ( 'international standard', 'config_control_design', 1994, #221 ) ;
#190 = CALENDAR_DATE ( 2021, 28, 10 ) ;
#191 = PRODUCT_DEFINITION_SHAPE ( 'NONE', 'NONE',  #66 ) ;
#192 = PERSON_AND_ORGANIZATION ( #195, #27 ) ;
#193 = CONICAL_SURFACE ( 'NONE', #108, 1.499999999999995559, 1.221730476396026388 ) ;
#194 = ADVANCED_FACE ( 'NONE', ( #211 ), #193, .T. ) ;
#195 = PERSON ( 'UNSPECIFIED', 'UNSPECIFIED', 'UNSPECIFIED', ('UNSPECIFIED'), ('UNSPECIFIED'), ('UNSPECIFIED') ) ;
#196 = PERSON_AND_ORGANIZATION ( #195, #27 ) ;
#197 = ORIENTED_EDGE ( 'NONE', *, *, #91, .F. ) ;
#198 = AXIS2_PLACEMENT_3D ( 'NONE', #208, #94, #19 ) ;
#199 = APPROVAL_STATUS ( 'not_yet_approved' ) ;
#200 = AXIS2_PLACEMENT_3D ( 'NONE', #158, #77, #29 ) ;
#201 = MECHANICAL_CONTEXT ( 'NONE', #203, 'mechanical' ) ;
#202 = EDGE_CURVE ( 'NONE', #188, #188, #166, .T. ) ;
#203 = APPLICATION_CONTEXT ( 'configuration controlled 3d designs of mechanical parts and assemblies' ) ;
#204 = VERTEX_POINT ( 'NONE', #1 ) ;
#205 = AXIS2_PLACEMENT_3D ( 'NONE', #134, #152, #34 ) ;
#206 = CC_DESIGN_PERSON_AND_ORGANIZATION_ASSIGNMENT ( #171, #6, ( #23 ) ) ;
#207 = MANIFOLD_SOLID_BREP ( 'Corps-Déplacer/Copier1[2]', #42 ) ;
#208 = CARTESIAN_POINT ( 'NONE',  ( 1.326762908760390423E-13, -4.653657836759941941E-15, 38.00000000000000000 ) ) ;
#209 = VERTEX_POINT ( 'NONE', #136 ) ;
#210 = DIRECTION ( 'NONE',  ( 3.491481338843133355E-15, -1.224646799147353207E-16, 1.000000000000000000 ) ) ;
#211 = FACE_OUTER_BOUND ( 'NONE', #114, .T. ) ;
#212 = PERSON_AND_ORGANIZATION_ROLE ( 'design_owner' ) ;
#213 = APPROVAL_DATE_TIME ( #61, #178 ) ;
#214 = FACE_OUTER_BOUND ( 'NONE', #113, .T. ) ;
#215 = MANIFOLD_SOLID_BREP ( 'Corps-Déplacer/Copier1[1]', #60 ) ;
#216 = AXIS2_PLACEMENT_3D ( 'NONE', #106, #210, #135 ) ;
#217 = EDGE_LOOP ( 'NONE', ( #146 ) ) ;
#218 = FACE_BOUND ( 'NONE', #144, .T. ) ;
#219 = CARTESIAN_POINT ( 'NONE',  ( 8.514328381593266851E-16, -2.986424381939430037E-17, 0.2438600569583569133 ) ) ;
#220 = EDGE_CURVE ( 'NONE', #98, #98, #80, .T. ) ;
#221 = APPLICATION_CONTEXT ( 'configuration controlled 3d designs of mechanical parts and assemblies' ) ;
#222 = APPROVAL_DATE_TIME ( #88, #90 ) ;
#223 = CYLINDRICAL_SURFACE ( 'NONE', #99, 0.6699999999999950440 ) ;
ENDSEC;
END-ISO-10303-21;
