ISO-10303-21;
HEADER;
FILE_DESCRIPTION (( 'STEP AP203' ),
    '1' );
FILE_NAME ('962923.step',
    '2021-10-28T09:23:05',
    ( '' ),
    ( '' ),
    'SwSTEP 2.0',
    'SolidWorks 2019',
    '' );
FILE_SCHEMA (( 'CONFIG_CONTROL_DESIGN' ));
ENDSEC;

DATA;
#1 = DIRECTION ( 'NONE',  ( -5.135813185032644414E-31, -1.000000000000000000, -1.445602896647343601E-16 ) ) ;
#2 = CYLINDRICAL_SURFACE ( 'NONE', #141, 0.6650000000000000355 ) ;
#3 = CARTESIAN_POINT ( 'NONE',  ( 8.450788617551589390E-16, -2.964137632820500591E-17, 0.2420402057870276735 ) ) ;
#4 = DIRECTION ( 'NONE',  ( -3.491481338843133355E-15, 1.229791517316362731E-16, -1.000000000000000000 ) ) ;
#5 = EDGE_CURVE ( 'NONE', #167, #167, #130, .T. ) ;
#6 = APPROVAL_PERSON_ORGANIZATION ( #61, #70, #193 ) ;
#7 = CARTESIAN_POINT ( 'NONE',  ( 8.450788617551586432E-16, -0.6650000000000000355, 0.2420402057870275903 ) ) ;
#8 = APPROVAL_STATUS ( 'not_yet_approved' ) ;
#9 = COORDINATED_UNIVERSAL_TIME_OFFSET ( 1, 0, .AHEAD. ) ;
#10 = PERSON ( 'UNSPECIFIED', 'UNSPECIFIED', 'UNSPECIFIED', ('UNSPECIFIED'), ('UNSPECIFIED'), ('UNSPECIFIED') ) ;
#11 = PERSON_AND_ORGANIZATION ( #10, #27 ) ;
#12 = AXIS2_PLACEMENT_3D ( 'NONE', #214, #181, #211 ) ;
#13 = EDGE_LOOP ( 'NONE', ( #17 ) ) ;
#14 = ORIENTED_EDGE ( 'NONE', *, *, #147, .T. ) ;
#15 = CONICAL_SURFACE ( 'NONE', #135, 1.199999999999999956, 0.7853981633974453924 ) ;
#16 = APPROVAL_STATUS ( 'not_yet_approved' ) ;
#17 = ORIENTED_EDGE ( 'NONE', *, *, #68, .T. ) ;
#18 = FACE_OUTER_BOUND ( 'NONE', #129, .T. ) ;
#19 = DIRECTION ( 'NONE',  ( -3.491481338843133355E-15, 1.229791517316362731E-16, -1.000000000000000000 ) ) ;
#20 = CC_DESIGN_DATE_AND_TIME_ASSIGNMENT ( #127, #81, ( #216 ) ) ;
#21 = CIRCLE ( 'NONE', #98, 0.6650000000000000355 ) ;
#22 = DIRECTION ( 'NONE',  ( 0.0000000000000000000, 1.000000000000000000, 0.0000000000000000000 ) ) ;
#23 = AXIS2_PLACEMENT_3D ( 'NONE', #25, #158, #58 ) ;
#24 = ADVANCED_FACE ( 'NONE', ( #18 ), #92, .T. ) ;
#25 = CARTESIAN_POINT ( 'NONE',  ( 1.316288464743861212E-13, -4.616918432785521081E-15, 37.69999999999999574 ) ) ;
#26 = CARTESIAN_POINT ( 'NONE',  ( 0.0000000000000000000, 0.0000000000000000000, 0.0000000000000000000 ) ) ;
#27 = ORGANIZATION ( 'UNSPECIFIED', 'UNSPECIFIED', '' ) ;
#28 = PERSON_AND_ORGANIZATION_ROLE ( 'design_supplier' ) ;
#29 = PERSON_AND_ORGANIZATION ( #10, #27 ) ;
#30 = PRODUCT_DEFINITION_SHAPE ( 'NONE', 'NONE',  #212 ) ;
#31 = ORIENTED_EDGE ( 'NONE', *, *, #5, .F. ) ;
#32 = CC_DESIGN_PERSON_AND_ORGANIZATION_ASSIGNMENT ( #29, #171, ( #212 ) ) ;
#33 = EDGE_LOOP ( 'NONE', ( #208 ) ) ;
#34 = LOCAL_TIME ( 11, 23, 5.000000000000000000, #97 ) ;
#35 = APPROVAL ( #140, 'UNSPECIFIED' ) ;
#36 = DIRECTION ( 'NONE',  ( 3.491481338843133355E-15, -1.224646799147353207E-16, 1.000000000000000000 ) ) ;
#37 = CLOSED_SHELL ( 'NONE', ( #24, #202, #123 ) ) ;
#38 = DIRECTION ( 'NONE',  ( 3.491481338843133355E-15, -1.224646799147353207E-16, 1.000000000000000000 ) ) ;
#39 = CC_DESIGN_APPROVAL ( #35, ( #212 ) ) ;
#40 = DIRECTION ( 'NONE',  ( -3.491481338843133355E-15, 1.224646799147353207E-16, -1.000000000000000000 ) ) ;
#41 = FACE_OUTER_BOUND ( 'NONE', #190, .T. ) ;
#42 = AXIS2_PLACEMENT_3D ( 'NONE', #136, #200, #199 ) ;
#43 = VERTEX_POINT ( 'NONE', #153 ) ;
#44 = CARTESIAN_POINT ( 'NONE',  ( 1.316288464743861212E-13, 1.499999999999995337, 37.69999999999999574 ) ) ;
#45 = VERTEX_POINT ( 'NONE', #44 ) ;
#46 = APPROVAL_ROLE ( '' ) ;
#47 = AXIS2_PLACEMENT_3D ( 'NONE', #118, #152, #182 ) ;
#48 = PERSON_AND_ORGANIZATION_ROLE ( 'creator' ) ;
#49 = UNCERTAINTY_MEASURE_WITH_UNIT (LENGTH_MEASURE( 1.000000000000000082E-05 ), #204, 'distance_accuracy_value', 'NONE');
#50 = CALENDAR_DATE ( 2021, 28, 10 ) ;
#51 = CC_DESIGN_APPROVAL ( #70, ( #216 ) ) ;
#52 = CARTESIAN_POINT ( 'NONE',  ( 3.910459099504309358E-14, -1.377366499394326377E-15, 11.19999999999999929 ) ) ;
#53 = CONICAL_SURFACE ( 'NONE', #42, 1.499999999999998668, 0.2617993877991501295 ) ;
#54 = MANIFOLD_SOLID_BREP ( 'Corps-Déplacer/Copier1[2]', #37 ) ;
#55 = CC_DESIGN_APPROVAL ( #128, ( #173 ) ) ;
#56 = FACE_OUTER_BOUND ( 'NONE', #89, .T. ) ;
#57 = DIRECTION ( 'NONE',  ( -4.344202882076471454E-31, -1.000000000000000000, -1.222784405058839476E-16 ) ) ;
#58 = DIRECTION ( 'NONE',  ( 0.0000000000000000000, 1.000000000000000000, 0.0000000000000000000 ) ) ;
#59 = CARTESIAN_POINT ( 'NONE',  ( 1.326762908760390423E-13, -4.653657836759941941E-15, 38.00000000000000000 ) ) ;
#60 = FACE_OUTER_BOUND ( 'NONE', #109, .T. ) ;
#61 = PERSON_AND_ORGANIZATION ( #10, #27 ) ;
#62 = ADVANCED_FACE ( 'NONE', ( #93, #215 ), #116, .T. ) ;
#63 = APPLICATION_PROTOCOL_DEFINITION ( 'international standard', 'config_control_design', 1994, #126 ) ;
#64 = CIRCLE ( 'NONE', #155, 0.6650000000000000355 ) ;
#65 = CALENDAR_DATE ( 2021, 28, 10 ) ;
#66 = EDGE_CURVE ( 'NONE', #43, #43, #94, .T. ) ;
#67 = PERSON_AND_ORGANIZATION_ROLE ( 'classification_officer' ) ;
#68 = EDGE_CURVE ( 'NONE', #213, #213, #90, .T. ) ;
#69 = AXIS2_PLACEMENT_3D ( 'NONE', #100, #40, #95 ) ;
#70 = APPROVAL ( #16, 'UNSPECIFIED' ) ;
#71 = ORIENTED_EDGE ( 'NONE', *, *, #5, .T. ) ;
#72 = CC_DESIGN_SECURITY_CLASSIFICATION ( #216, ( #173 ) ) ;
#73 = AXIS2_PLACEMENT_3D ( 'NONE', #52, #131, #194 ) ;
#74 = FACE_BOUND ( 'NONE', #112, .T. ) ;
#75 = PRODUCT_RELATED_PRODUCT_CATEGORY ( 'detail', '', ( #87 ) ) ;
#76 = CARTESIAN_POINT ( 'NONE',  ( 3.910459099504309358E-14, 0.6649999999999985922, 11.19999999999999929 ) ) ;
#77 = FACE_OUTER_BOUND ( 'NONE', #176, .T. ) ;
#78 = CONICAL_SURFACE ( 'NONE', #205, 1.499999999999995559, 1.221730476396026388 ) ;
#79 = PLANE ( 'NONE',  #143 ) ;
#80 = CARTESIAN_POINT ( 'NONE',  ( 4.998496309649443292E-14, -1.760601808910372190E-15, 14.31626242431999962 ) ) ;
#81 = DATE_TIME_ROLE ( 'classification_date' ) ;
#82 = CC_DESIGN_PERSON_AND_ORGANIZATION_ASSIGNMENT ( #175, #48, ( #173 ) ) ;
#83 = AXIS2_PLACEMENT_3D ( 'NONE', #137, #38, #156 ) ;
#84 = MECHANICAL_CONTEXT ( 'NONE', #117, 'mechanical' ) ;
#85 = APPROVAL_ROLE ( '' ) ;
#86 = DATE_AND_TIME ( #186, #146 ) ;
#87 = PRODUCT ( '962923', '962923', '', ( #84 ) ) ;
#88 = PERSON_AND_ORGANIZATION ( #10, #27 ) ;
#89 = EDGE_LOOP ( 'NONE', ( #178 ) ) ;
#90 = CIRCLE ( 'NONE', #104, 1.499999999999998668 ) ;
#91 = APPROVAL_PERSON_ORGANIZATION ( #161, #128, #85 ) ;
#92 = PLANE ( 'NONE',  #83 ) ;
#93 = FACE_OUTER_BOUND ( 'NONE', #164, .T. ) ;
#94 = CIRCLE ( 'NONE', #69, 1.199999999999999956 ) ;
#95 = DIRECTION ( 'NONE',  ( 0.0000000000000000000, 1.000000000000000000, 0.0000000000000000000 ) ) ;
#96 = ADVANCED_FACE ( 'NONE', ( #169, #99 ), #15, .T. ) ;
#97 = COORDINATED_UNIVERSAL_TIME_OFFSET ( 1, 0, .AHEAD. ) ;
#98 = AXIS2_PLACEMENT_3D ( 'NONE', #180, #119, #183 ) ;
#99 = FACE_BOUND ( 'NONE', #33, .T. ) ;
#100 = CARTESIAN_POINT ( 'NONE',  ( 1.326762908760390423E-13, -4.653657836759941941E-15, 38.00000000000000000 ) ) ;
#101 = FACE_OUTER_BOUND ( 'NONE', #150, .T. ) ;
#102 = APPROVAL_PERSON_ORGANIZATION ( #122, #35, #46 ) ;
#103 = DIRECTION ( 'NONE',  ( 1.000000000000000000, 0.0000000000000000000, 0.0000000000000000000 ) ) ;
#104 = AXIS2_PLACEMENT_3D ( 'NONE', #80, #4, #22 ) ;
#105 = DATE_TIME_ROLE ( 'creation_date' ) ;
#106 = LOCAL_TIME ( 11, 23, 5.000000000000000000, #144 ) ;
#107 = CIRCLE ( 'NONE', #23, 1.499999999999999778 ) ;
#108 = CC_DESIGN_DATE_AND_TIME_ASSIGNMENT ( #203, #105, ( #212 ) ) ;
#109 = EDGE_LOOP ( 'NONE', ( #179 ) ) ;
#110 = SHAPE_DEFINITION_REPRESENTATION ( #30, #111 ) ;
#111 = ADVANCED_BREP_SHAPE_REPRESENTATION ( '962923', ( #139, #54, #132 ), #196 ) ;
#112 = EDGE_LOOP ( 'NONE', ( #222 ) ) ;
#113 = LOCAL_TIME ( 11, 23, 5.000000000000000000, #145 ) ;
#114 = PLANE ( 'NONE',  #47 ) ;
#115 = EDGE_CURVE ( 'NONE', #184, #184, #64, .T. ) ;
#116 = CYLINDRICAL_SURFACE ( 'NONE', #12, 1.499999999999998224 ) ;
#117 = APPLICATION_CONTEXT ( 'configuration controlled 3d designs of mechanical parts and assemblies' ) ;
#118 = CARTESIAN_POINT ( 'NONE',  ( 1.326762908760390423E-13, 8.998558695971077224E-33, 38.00000000000000000 ) ) ;
#119 = DIRECTION ( 'NONE',  ( -3.491481338843133355E-15, 1.229791517316362731E-16, -1.000000000000000000 ) ) ;
#120 = CARTESIAN_POINT ( 'NONE',  ( 4.998496309649443292E-14, 1.499999999999996891, 14.31626242431999962 ) ) ;
#121 =( NAMED_UNIT ( * ) PLANE_ANGLE_UNIT ( ) SI_UNIT ( $, .RADIAN. ) );
#122 = PERSON_AND_ORGANIZATION ( #10, #27 ) ;
#123 = ADVANCED_FACE ( 'NONE', ( #77 ), #78, .T. ) ;
#124 = PERSON_AND_ORGANIZATION ( #10, #27 ) ;
#125 = CALENDAR_DATE ( 2021, 28, 10 ) ;
#126 = APPLICATION_CONTEXT ( 'configuration controlled 3d designs of mechanical parts and assemblies' ) ;
#127 = DATE_AND_TIME ( #50, #113 ) ;
#128 = APPROVAL ( #8, 'UNSPECIFIED' ) ;
#129 = EDGE_LOOP ( 'NONE', ( #31 ) ) ;
#130 = CIRCLE ( 'NONE', #73, 0.6650000000000000355 ) ;
#131 = DIRECTION ( 'NONE',  ( -3.491481338843133355E-15, 1.229791517316362731E-16, -1.000000000000000000 ) ) ;
#132 = AXIS2_PLACEMENT_3D ( 'NONE', #26, #142, #103 ) ;
#133 = CARTESIAN_POINT ( 'NONE',  ( 3.910459099504309358E-14, 1.124819836996388827E-32, 11.19999999999999929 ) ) ;
#134 = DIRECTION ( 'NONE',  ( -3.491481338843133355E-15, 1.224646799147353207E-16, -1.000000000000000000 ) ) ;
#135 = AXIS2_PLACEMENT_3D ( 'NONE', #59, #134, #168 ) ;
#136 = CARTESIAN_POINT ( 'NONE',  ( 4.998496309649443292E-14, -1.760601808910372190E-15, 14.31626242431999962 ) ) ;
#137 = CARTESIAN_POINT ( 'NONE',  ( 3.910459099504309358E-14, 1.124819836996388827E-32, 11.19999999999999929 ) ) ;
#138 = CARTESIAN_POINT ( 'NONE',  ( 0.0000000000000000000, 0.0000000000000000000, 0.0000000000000000000 ) ) ;
#139 = MANIFOLD_SOLID_BREP ( 'Corps-Déplacer/Copier1[1]', #148 ) ;
#140 = APPROVAL_STATUS ( 'not_yet_approved' ) ;
#141 = AXIS2_PLACEMENT_3D ( 'NONE', #138, #19, #201 ) ;
#142 = DIRECTION ( 'NONE',  ( 0.0000000000000000000, 0.0000000000000000000, 1.000000000000000000 ) ) ;
#143 = AXIS2_PLACEMENT_3D ( 'NONE', #133, #36, #217 ) ;
#144 = COORDINATED_UNIVERSAL_TIME_OFFSET ( 1, 0, .AHEAD. ) ;
#145 = COORDINATED_UNIVERSAL_TIME_OFFSET ( 1, 0, .AHEAD. ) ;
#146 = LOCAL_TIME ( 11, 23, 5.000000000000000000, #9 ) ;
#147 = EDGE_CURVE ( 'NONE', #45, #45, #107, .T. ) ;
#148 = CLOSED_SHELL ( 'NONE', ( #62, #96, #165, #157, #187 ) ) ;
#149 = ORIENTED_EDGE ( 'NONE', *, *, #66, .F. ) ;
#150 = EDGE_LOOP ( 'NONE', ( #71 ) ) ;
#151 = DATE_AND_TIME ( #191, #34 ) ;
#152 = DIRECTION ( 'NONE',  ( -3.491481338843133355E-15, 1.224646799147353207E-16, -1.000000000000000000 ) ) ;
#153 = CARTESIAN_POINT ( 'NONE',  ( 1.326762908760390423E-13, 1.199999999999995293, 38.00000000000000000 ) ) ;
#154 = DIRECTION ( 'NONE',  ( 3.491481338843133355E-15, -1.224646799147353207E-16, 1.000000000000000000 ) ) ;
#155 = AXIS2_PLACEMENT_3D ( 'NONE', #3, #166, #57 ) ;
#156 = DIRECTION ( 'NONE',  ( -4.275831445896958607E-31, -1.000000000000000000, -1.224646799147353207E-16 ) ) ;
#157 = ADVANCED_FACE ( 'NONE', ( #74, #170 ), #53, .T. ) ;
#158 = DIRECTION ( 'NONE',  ( -3.491481338843133355E-15, 1.224646799147353207E-16, -1.000000000000000000 ) ) ;
#159 =( NAMED_UNIT ( * ) SI_UNIT ( $, .STERADIAN. ) SOLID_ANGLE_UNIT ( ) );
#160 = VERTEX_POINT ( 'NONE', #162 ) ;
#161 = PERSON_AND_ORGANIZATION ( #10, #27 ) ;
#162 = CARTESIAN_POINT ( 'NONE',  ( 3.910459099504309358E-14, 0.6649999999999985922, 11.19999999999999929 ) ) ;
#163 = LOCAL_TIME ( 11, 23, 5.000000000000000000, #219 ) ;
#164 = EDGE_LOOP ( 'NONE', ( #177 ) ) ;
#165 = ADVANCED_FACE ( 'NONE', ( #41 ), #114, .F. ) ;
#166 = DIRECTION ( 'NONE',  ( -3.491481338843133355E-15, 1.224646799147353207E-16, -1.000000000000000000 ) ) ;
#167 = VERTEX_POINT ( 'NONE', #76 ) ;
#168 = DIRECTION ( 'NONE',  ( 0.0000000000000000000, 1.000000000000000000, 0.0000000000000000000 ) ) ;
#169 = FACE_OUTER_BOUND ( 'NONE', #209, .T. ) ;
#170 = FACE_OUTER_BOUND ( 'NONE', #13, .T. ) ;
#171 = PERSON_AND_ORGANIZATION_ROLE ( 'creator' ) ;
#172 = PERSON_AND_ORGANIZATION_ROLE ( 'design_owner' ) ;
#173 = PRODUCT_DEFINITION_FORMATION_WITH_SPECIFIED_SOURCE ( 'ANY', '', #87, .NOT_KNOWN. ) ;
#174 = APPLICATION_PROTOCOL_DEFINITION ( 'international standard', 'config_control_design', 1994, #117 ) ;
#175 = PERSON_AND_ORGANIZATION ( #10, #27 ) ;
#176 = EDGE_LOOP ( 'NONE', ( #207 ) ) ;
#177 = ORIENTED_EDGE ( 'NONE', *, *, #68, .F. ) ;
#178 = ORIENTED_EDGE ( 'NONE', *, *, #198, .T. ) ;
#179 = ORIENTED_EDGE ( 'NONE', *, *, #115, .F. ) ;
#180 = CARTESIAN_POINT ( 'NONE',  ( 3.910459099504309358E-14, -1.377366499394326377E-15, 11.19999999999999929 ) ) ;
#181 = DIRECTION ( 'NONE',  ( -3.491481338843133355E-15, 1.224646799147353207E-16, -1.000000000000000000 ) ) ;
#182 = DIRECTION ( 'NONE',  ( 4.275831445896958607E-31, 1.000000000000000000, 1.224646799147353207E-16 ) ) ;
#183 = DIRECTION ( 'NONE',  ( 0.0000000000000000000, 1.000000000000000000, 0.0000000000000000000 ) ) ;
#184 = VERTEX_POINT ( 'NONE', #7 ) ;
#185 = CC_DESIGN_PERSON_AND_ORGANIZATION_ASSIGNMENT ( #11, #67, ( #216 ) ) ;
#186 = CALENDAR_DATE ( 2021, 28, 10 ) ;
#187 = ADVANCED_FACE ( 'NONE', ( #56 ), #79, .F. ) ;
#188 = SECURITY_CLASSIFICATION_LEVEL ( 'unclassified' ) ;
#189 = DESIGN_CONTEXT ( 'detailed design', #126, 'design' ) ;
#190 = EDGE_LOOP ( 'NONE', ( #149 ) ) ;
#191 = CALENDAR_DATE ( 2021, 28, 10 ) ;
#192 = EDGE_LOOP ( 'NONE', ( #14 ) ) ;
#193 = APPROVAL_ROLE ( '' ) ;
#194 = DIRECTION ( 'NONE',  ( 0.0000000000000000000, 1.000000000000000000, 0.0000000000000000000 ) ) ;
#195 = CC_DESIGN_PERSON_AND_ORGANIZATION_ASSIGNMENT ( #124, #172, ( #87 ) ) ;
#196 =( GEOMETRIC_REPRESENTATION_CONTEXT ( 3 ) GLOBAL_UNCERTAINTY_ASSIGNED_CONTEXT ( ( #49 ) ) GLOBAL_UNIT_ASSIGNED_CONTEXT ( ( #204, #121, #159 ) ) REPRESENTATION_CONTEXT ( 'NONE', 'WORKASPACE' ) );
#197 = CARTESIAN_POINT ( 'NONE',  ( 1.906192921252232855E-15, -6.686024735685322183E-17, 0.5459553513993090634 ) ) ;
#198 = EDGE_CURVE ( 'NONE', #160, #160, #21, .T. ) ;
#199 = DIRECTION ( 'NONE',  ( 0.0000000000000000000, -1.000000000000000000, 0.0000000000000000000 ) ) ;
#200 = DIRECTION ( 'NONE',  ( 3.491481338843133355E-15, -1.229791517316362731E-16, 1.000000000000000000 ) ) ;
#201 = DIRECTION ( 'NONE',  ( 4.293794133377662246E-31, 1.000000000000000000, 1.229791517316362731E-16 ) ) ;
#202 = ADVANCED_FACE ( 'NONE', ( #101, #60 ), #2, .T. ) ;
#203 = DATE_AND_TIME ( #65, #106 ) ;
#204 =( LENGTH_UNIT ( ) NAMED_UNIT ( * ) SI_UNIT ( .MILLI., .METRE. ) );
#205 = AXIS2_PLACEMENT_3D ( 'NONE', #197, #154, #1 ) ;
#206 = DATE_AND_TIME ( #125, #163 ) ;
#207 = ORIENTED_EDGE ( 'NONE', *, *, #115, .T. ) ;
#208 = ORIENTED_EDGE ( 'NONE', *, *, #66, .T. ) ;
#209 = EDGE_LOOP ( 'NONE', ( #223 ) ) ;
#210 = APPROVAL_DATE_TIME ( #151, #70 ) ;
#211 = DIRECTION ( 'NONE',  ( 4.275831445896958607E-31, 1.000000000000000000, 1.224646799147353207E-16 ) ) ;
#212 = PRODUCT_DEFINITION ( 'UNKNOWN', '', #173, #189 ) ;
#213 = VERTEX_POINT ( 'NONE', #120 ) ;
#214 = CARTESIAN_POINT ( 'NONE',  ( 0.0000000000000000000, 0.0000000000000000000, 0.0000000000000000000 ) ) ;
#215 = FACE_OUTER_BOUND ( 'NONE', #192, .T. ) ;
#216 = SECURITY_CLASSIFICATION ( '', '', #188 ) ;
#217 = DIRECTION ( 'NONE',  ( -4.275831445896958607E-31, -1.000000000000000000, -1.224646799147353207E-16 ) ) ;
#218 = APPROVAL_DATE_TIME ( #206, #128 ) ;
#219 = COORDINATED_UNIVERSAL_TIME_OFFSET ( 1, 0, .AHEAD. ) ;
#220 = APPROVAL_DATE_TIME ( #86, #35 ) ;
#221 = CC_DESIGN_PERSON_AND_ORGANIZATION_ASSIGNMENT ( #88, #28, ( #173 ) ) ;
#222 = ORIENTED_EDGE ( 'NONE', *, *, #198, .F. ) ;
#223 = ORIENTED_EDGE ( 'NONE', *, *, #147, .F. ) ;
ENDSEC;
END-ISO-10303-21;
