ISO-10303-21;
HEADER;
FILE_DESCRIPTION (( 'STEP AP203' ),
    '1' );
FILE_NAME ('962922.step',
    '2021-10-28T09:23:04',
    ( '' ),
    ( '' ),
    'SwSTEP 2.0',
    'SolidWorks 2019',
    '' );
FILE_SCHEMA (( 'CONFIG_CONTROL_DESIGN' ));
ENDSEC;

DATA;
#1 = ORIENTED_EDGE ( 'NONE', *, *, #108, .T. ) ;
#2 = AXIS2_PLACEMENT_3D ( 'NONE', #163, #61, #179 ) ;
#3 = FACE_OUTER_BOUND ( 'NONE', #107, .T. ) ;
#4 = CC_DESIGN_SECURITY_CLASSIFICATION ( #156, ( #151 ) ) ;
#5 = DIRECTION ( 'NONE',  ( 0.0000000000000000000, 1.000000000000000000, 0.0000000000000000000 ) ) ;
#6 = CC_DESIGN_PERSON_AND_ORGANIZATION_ASSIGNMENT ( #117, #50, ( #166 ) ) ;
#7 = CYLINDRICAL_SURFACE ( 'NONE', #2, 1.499999999999998224 ) ;
#8 = DIRECTION ( 'NONE',  ( 0.0000000000000000000, 1.000000000000000000, 0.0000000000000000000 ) ) ;
#9 = CC_DESIGN_APPROVAL ( #188, ( #152 ) ) ;
#10 = FACE_OUTER_BOUND ( 'NONE', #221, .T. ) ;
#11 = APPROVAL_ROLE ( '' ) ;
#12 = CIRCLE ( 'NONE', #52, 1.499999999999999778 ) ;
#13 = APPROVAL_PERSON_ORGANIZATION ( #66, #96, #11 ) ;
#14 = CC_DESIGN_DATE_AND_TIME_ASSIGNMENT ( #198, #16, ( #156 ) ) ;
#15 = PERSON_AND_ORGANIZATION ( #28, #23 ) ;
#16 = DATE_TIME_ROLE ( 'classification_date' ) ;
#17 = LOCAL_TIME ( 11, 23, 4.000000000000000000, #214 ) ;
#18 = AXIS2_PLACEMENT_3D ( 'NONE', #143, #131, #26 ) ;
#19 = EDGE_LOOP ( 'NONE', ( #208 ) ) ;
#20 = CONICAL_SURFACE ( 'NONE', #78, 1.199999999999999956, 0.7853981633974453924 ) ;
#21 = CARTESIAN_POINT ( 'NONE',  ( 3.910459099504309358E-14, 0.6599999999999935918, 11.19999999999999929 ) ) ;
#22 = CARTESIAN_POINT ( 'NONE',  ( 3.910459099504309358E-14, 1.124819836996388827E-32, 11.19999999999999929 ) ) ;
#23 = ORGANIZATION ( 'UNSPECIFIED', 'UNSPECIFIED', '' ) ;
#24 = PLANE ( 'NONE',  #49 ) ;
#25 = AXIS2_PLACEMENT_3D ( 'NONE', #43, #197, #195 ) ;
#26 = DIRECTION ( 'NONE',  ( 0.0000000000000000000, 1.000000000000000000, 0.0000000000000000000 ) ) ;
#27 = CARTESIAN_POINT ( 'NONE',  ( 8.387248853509780782E-16, -0.6599999999999950351, 0.2402203546156947145 ) ) ;
#28 = PERSON ( 'UNSPECIFIED', 'UNSPECIFIED', 'UNSPECIFIED', ('UNSPECIFIED'), ('UNSPECIFIED'), ('UNSPECIFIED') ) ;
#29 = APPROVAL_PERSON_ORGANIZATION ( #183, #188, #187 ) ;
#30 = PERSON_AND_ORGANIZATION_ROLE ( 'design_supplier' ) ;
#31 = CONICAL_SURFACE ( 'NONE', #154, 1.499999999999998668, 0.2617993877991500740 ) ;
#32 = DATE_AND_TIME ( #100, #136 ) ;
#33 = CALENDAR_DATE ( 2021, 28, 10 ) ;
#34 = APPLICATION_PROTOCOL_DEFINITION ( 'international standard', 'config_control_design', 1994, #83 ) ;
#35 = APPROVAL_DATE_TIME ( #32, #188 ) ;
#36 = EDGE_LOOP ( 'NONE', ( #54 ) ) ;
#37 = CC_DESIGN_APPROVAL ( #96, ( #151 ) ) ;
#38 = CARTESIAN_POINT ( 'NONE',  ( 3.910459099504309358E-14, -1.377366499394326377E-15, 11.19999999999999929 ) ) ;
#39 = CLOSED_SHELL ( 'NONE', ( #199, #144, #172, #184, #53 ) ) ;
#40 = VERTEX_POINT ( 'NONE', #177 ) ;
#41 = ADVANCED_FACE ( 'NONE', ( #57 ), #71, .T. ) ;
#42 = CC_DESIGN_APPROVAL ( #157, ( #156 ) ) ;
#43 = CARTESIAN_POINT ( 'NONE',  ( 0.0000000000000000000, 0.0000000000000000000, 0.0000000000000000000 ) ) ;
#44 = DIRECTION ( 'NONE',  ( -3.491481338843133355E-15, 1.224646799147353207E-16, -1.000000000000000000 ) ) ;
#45 = AXIS2_PLACEMENT_3D ( 'NONE', #65, #194, #77 ) ;
#46 = CARTESIAN_POINT ( 'NONE',  ( 1.316288464743861212E-13, -4.616918432785521081E-15, 37.69999999999999574 ) ) ;
#47 = PERSON_AND_ORGANIZATION ( #28, #23 ) ;
#48 = APPLICATION_PROTOCOL_DEFINITION ( 'international standard', 'config_control_design', 1994, #87 ) ;
#49 = AXIS2_PLACEMENT_3D ( 'NONE', #22, #95, #64 ) ;
#50 = PERSON_AND_ORGANIZATION_ROLE ( 'design_owner' ) ;
#51 = DIRECTION ( 'NONE',  ( 1.000000000000000000, 0.0000000000000000000, 0.0000000000000000000 ) ) ;
#52 = AXIS2_PLACEMENT_3D ( 'NONE', #46, #165, #8 ) ;
#53 = ADVANCED_FACE ( 'NONE', ( #141 ), #207, .F. ) ;
#54 = ORIENTED_EDGE ( 'NONE', *, *, #170, .F. ) ;
#55 = LOCAL_TIME ( 11, 23, 4.000000000000000000, #168 ) ;
#56 = CIRCLE ( 'NONE', #181, 1.499999999999998668 ) ;
#57 = FACE_OUTER_BOUND ( 'NONE', #110, .T. ) ;
#58 = CC_DESIGN_PERSON_AND_ORGANIZATION_ASSIGNMENT ( #105, #69, ( #151 ) ) ;
#59 = MANIFOLD_SOLID_BREP ( 'Corps-Déplacer/Copier1[2]', #102 ) ;
#60 = DIRECTION ( 'NONE',  ( 3.491481338843133355E-15, -1.229791517316362731E-16, 1.000000000000000000 ) ) ;
#61 = DIRECTION ( 'NONE',  ( -3.491481338843133355E-15, 1.224646799147353207E-16, -1.000000000000000000 ) ) ;
#62 = CARTESIAN_POINT ( 'NONE',  ( 1.326762908760390423E-13, 8.998558695971077224E-33, 38.00000000000000000 ) ) ;
#63 = MANIFOLD_SOLID_BREP ( 'Corps-Déplacer/Copier1[1]', #39 ) ;
#64 = DIRECTION ( 'NONE',  ( -4.275831445896958607E-31, -1.000000000000000000, -1.224646799147353207E-16 ) ) ;
#65 = CARTESIAN_POINT ( 'NONE',  ( 3.910459099504309358E-14, 1.124819836996388827E-32, 11.19999999999999929 ) ) ;
#66 = PERSON_AND_ORGANIZATION ( #28, #23 ) ;
#67 = APPROVAL_STATUS ( 'not_yet_approved' ) ;
#68 =( LENGTH_UNIT ( ) NAMED_UNIT ( * ) SI_UNIT ( .MILLI., .METRE. ) );
#69 = PERSON_AND_ORGANIZATION_ROLE ( 'creator' ) ;
#70 = CALENDAR_DATE ( 2021, 28, 10 ) ;
#71 = CONICAL_SURFACE ( 'NONE', #82, 1.499999999999995559, 1.221730476396026388 ) ;
#72 = ORIENTED_EDGE ( 'NONE', *, *, #191, .F. ) ;
#73 = EDGE_LOOP ( 'NONE', ( #1 ) ) ;
#74 = AXIS2_PLACEMENT_3D ( 'NONE', #162, #81, #210 ) ;
#75 = DIRECTION ( 'NONE',  ( -5.135813185032644414E-31, -1.000000000000000000, -1.445602896647343601E-16 ) ) ;
#76 = FACE_OUTER_BOUND ( 'NONE', #142, .T. ) ;
#77 = DIRECTION ( 'NONE',  ( -4.275831445896958607E-31, -1.000000000000000000, -1.224646799147353207E-16 ) ) ;
#78 = AXIS2_PLACEMENT_3D ( 'NONE', #213, #209, #178 ) ;
#79 = DIRECTION ( 'NONE',  ( 0.0000000000000000000, 1.000000000000000000, 0.0000000000000000000 ) ) ;
#80 = VERTEX_POINT ( 'NONE', #176 ) ;
#81 = DIRECTION ( 'NONE',  ( -3.491481338843133355E-15, 1.224646799147353207E-16, -1.000000000000000000 ) ) ;
#82 = AXIS2_PLACEMENT_3D ( 'NONE', #125, #90, #75 ) ;
#83 = APPLICATION_CONTEXT ( 'configuration controlled 3d designs of mechanical parts and assemblies' ) ;
#84 = APPROVAL_PERSON_ORGANIZATION ( #47, #157, #182 ) ;
#85 = PERSON_AND_ORGANIZATION_ROLE ( 'classification_officer' ) ;
#86 = DATE_AND_TIME ( #33, #17 ) ;
#87 = APPLICATION_CONTEXT ( 'configuration controlled 3d designs of mechanical parts and assemblies' ) ;
#88 = EDGE_LOOP ( 'NONE', ( #72 ) ) ;
#89 = CIRCLE ( 'NONE', #18, 1.199999999999999956 ) ;
#90 = DIRECTION ( 'NONE',  ( 3.491481338843133355E-15, -1.224646799147353207E-16, 1.000000000000000000 ) ) ;
#91 = EDGE_LOOP ( 'NONE', ( #124 ) ) ;
#92 = CC_DESIGN_PERSON_AND_ORGANIZATION_ASSIGNMENT ( #171, #30, ( #151 ) ) ;
#93 = FACE_OUTER_BOUND ( 'NONE', #138, .T. ) ;
#94 = CARTESIAN_POINT ( 'NONE',  ( 3.910459099504309358E-14, -1.377366499394326377E-15, 11.19999999999999929 ) ) ;
#95 = DIRECTION ( 'NONE',  ( 3.491481338843133355E-15, -1.224646799147353207E-16, 1.000000000000000000 ) ) ;
#96 = APPROVAL ( #104, 'UNSPECIFIED' ) ;
#97 = DIRECTION ( 'NONE',  ( -3.491481338843133355E-15, 1.229791517316362731E-16, -1.000000000000000000 ) ) ;
#98 = VERTEX_POINT ( 'NONE', #167 ) ;
#99 = PRODUCT_DEFINITION_SHAPE ( 'NONE', 'NONE',  #152 ) ;
#100 = CALENDAR_DATE ( 2021, 28, 10 ) ;
#101 = CC_DESIGN_PERSON_AND_ORGANIZATION_ASSIGNMENT ( #15, #85, ( #156 ) ) ;
#102 = CLOSED_SHELL ( 'NONE', ( #189, #127, #41 ) ) ;
#103 =( NAMED_UNIT ( * ) SI_UNIT ( $, .STERADIAN. ) SOLID_ANGLE_UNIT ( ) );
#104 = APPROVAL_STATUS ( 'not_yet_approved' ) ;
#105 = PERSON_AND_ORGANIZATION ( #28, #23 ) ;
#106 = CALENDAR_DATE ( 2021, 28, 10 ) ;
#107 = EDGE_LOOP ( 'NONE', ( #161 ) ) ;
#108 = EDGE_CURVE ( 'NONE', #80, #80, #89, .T. ) ;
#109 = AXIS2_PLACEMENT_3D ( 'NONE', #38, #97, #164 ) ;
#110 = EDGE_LOOP ( 'NONE', ( #206 ) ) ;
#111 = DIRECTION ( 'NONE',  ( -3.491481338843133355E-15, 1.229791517316362731E-16, -1.000000000000000000 ) ) ;
#112 = FACE_OUTER_BOUND ( 'NONE', #91, .T. ) ;
#113 = FACE_BOUND ( 'NONE', #73, .T. ) ;
#114 = CARTESIAN_POINT ( 'NONE',  ( 5.005011502524570430E-14, -1.762896631123045583E-15, 14.33492267835786294 ) ) ;
#115 = FACE_BOUND ( 'NONE', #88, .T. ) ;
#116 = APPROVAL_STATUS ( 'not_yet_approved' ) ;
#117 = PERSON_AND_ORGANIZATION ( #28, #23 ) ;
#118 = PERSON_AND_ORGANIZATION_ROLE ( 'creator' ) ;
#119 = CALENDAR_DATE ( 2021, 28, 10 ) ;
#120 =( GEOMETRIC_REPRESENTATION_CONTEXT ( 3 ) GLOBAL_UNCERTAINTY_ASSIGNED_CONTEXT ( ( #190 ) ) GLOBAL_UNIT_ASSIGNED_CONTEXT ( ( #68, #133, #103 ) ) REPRESENTATION_CONTEXT ( 'NONE', 'WORKASPACE' ) );
#121 = EDGE_CURVE ( 'NONE', #148, #148, #126, .T. ) ;
#122 = ADVANCED_BREP_SHAPE_REPRESENTATION ( '962922', ( #63, #59, #215 ), #120 ) ;
#123 = ORIENTED_EDGE ( 'NONE', *, *, #203, .T. ) ;
#124 = ORIENTED_EDGE ( 'NONE', *, *, #219, .F. ) ;
#125 = CARTESIAN_POINT ( 'NONE',  ( 1.906192921252232855E-15, -6.686024735685322183E-17, 0.5459553513993090634 ) ) ;
#126 = CIRCLE ( 'NONE', #74, 0.6599999999999950351 ) ;
#127 = ADVANCED_FACE ( 'NONE', ( #76, #147 ), #132, .T. ) ;
#128 = DIRECTION ( 'NONE',  ( -3.491481338843133355E-15, 1.229791517316362731E-16, -1.000000000000000000 ) ) ;
#129 = AXIS2_PLACEMENT_3D ( 'NONE', #94, #128, #5 ) ;
#130 = FACE_OUTER_BOUND ( 'NONE', #36, .T. ) ;
#131 = DIRECTION ( 'NONE',  ( -3.491481338843133355E-15, 1.224646799147353207E-16, -1.000000000000000000 ) ) ;
#132 = CYLINDRICAL_SURFACE ( 'NONE', #25, 0.6599999999999950351 ) ;
#133 =( NAMED_UNIT ( * ) PLANE_ANGLE_UNIT ( ) SI_UNIT ( $, .RADIAN. ) );
#134 = DIRECTION ( 'NONE',  ( 0.0000000000000000000, 0.0000000000000000000, 1.000000000000000000 ) ) ;
#135 = CC_DESIGN_DATE_AND_TIME_ASSIGNMENT ( #86, #201, ( #152 ) ) ;
#136 = LOCAL_TIME ( 11, 23, 4.000000000000000000, #216 ) ;
#137 = CIRCLE ( 'NONE', #129, 0.6599999999999950351 ) ;
#138 = EDGE_LOOP ( 'NONE', ( #123 ) ) ;
#139 = ORIENTED_EDGE ( 'NONE', *, *, #219, .T. ) ;
#140 = COORDINATED_UNIVERSAL_TIME_OFFSET ( 1, 0, .AHEAD. ) ;
#141 = FACE_OUTER_BOUND ( 'NONE', #19, .T. ) ;
#142 = EDGE_LOOP ( 'NONE', ( #159 ) ) ;
#143 = CARTESIAN_POINT ( 'NONE',  ( 1.326762908760390423E-13, -4.653657836759941941E-15, 38.00000000000000000 ) ) ;
#144 = ADVANCED_FACE ( 'NONE', ( #112, #113 ), #20, .T. ) ;
#145 = AXIS2_PLACEMENT_3D ( 'NONE', #62, #44, #211 ) ;
#146 = FACE_OUTER_BOUND ( 'NONE', #173, .T. ) ;
#147 = FACE_OUTER_BOUND ( 'NONE', #160, .T. ) ;
#148 = VERTEX_POINT ( 'NONE', #27 ) ;
#149 = VERTEX_POINT ( 'NONE', #21 ) ;
#150 = CARTESIAN_POINT ( 'NONE',  ( 1.316288464743861212E-13, 1.499999999999995337, 37.69999999999999574 ) ) ;
#151 = PRODUCT_DEFINITION_FORMATION_WITH_SPECIFIED_SOURCE ( 'ANY', '', #166, .NOT_KNOWN. ) ;
#152 = PRODUCT_DEFINITION ( 'UNKNOWN', '', #151, #174 ) ;
#153 = DATE_AND_TIME ( #119, #55 ) ;
#154 = AXIS2_PLACEMENT_3D ( 'NONE', #114, #60, #192 ) ;
#155 = COORDINATED_UNIVERSAL_TIME_OFFSET ( 1, 0, .AHEAD. ) ;
#156 = SECURITY_CLASSIFICATION ( '', '', #202 ) ;
#157 = APPROVAL ( #116, 'UNSPECIFIED' ) ;
#158 = DATE_AND_TIME ( #70, #204 ) ;
#159 = ORIENTED_EDGE ( 'NONE', *, *, #170, .T. ) ;
#160 = EDGE_LOOP ( 'NONE', ( #222 ) ) ;
#161 = ORIENTED_EDGE ( 'NONE', *, *, #203, .F. ) ;
#162 = CARTESIAN_POINT ( 'NONE',  ( 8.387248853509783740E-16, -2.941850883701527388E-17, 0.2402203546156947978 ) ) ;
#163 = CARTESIAN_POINT ( 'NONE',  ( 0.0000000000000000000, 0.0000000000000000000, 0.0000000000000000000 ) ) ;
#164 = DIRECTION ( 'NONE',  ( 0.0000000000000000000, 1.000000000000000000, 0.0000000000000000000 ) ) ;
#165 = DIRECTION ( 'NONE',  ( -3.491481338843133355E-15, 1.224646799147353207E-16, -1.000000000000000000 ) ) ;
#166 = PRODUCT ( '962922', '962922', '', ( #218 ) ) ;
#167 = CARTESIAN_POINT ( 'NONE',  ( 3.910459099504309358E-14, 0.6599999999999935918, 11.19999999999999929 ) ) ;
#168 = COORDINATED_UNIVERSAL_TIME_OFFSET ( 1, 0, .AHEAD. ) ;
#169 = PERSON_AND_ORGANIZATION ( #28, #23 ) ;
#170 = EDGE_CURVE ( 'NONE', #98, #98, #137, .T. ) ;
#171 = PERSON_AND_ORGANIZATION ( #28, #23 ) ;
#172 = ADVANCED_FACE ( 'NONE', ( #10 ), #180, .F. ) ;
#173 = EDGE_LOOP ( 'NONE', ( #139 ) ) ;
#174 = DESIGN_CONTEXT ( 'detailed design', #83, 'design' ) ;
#175 = CC_DESIGN_PERSON_AND_ORGANIZATION_ASSIGNMENT ( #169, #118, ( #152 ) ) ;
#176 = CARTESIAN_POINT ( 'NONE',  ( 1.326762908760390423E-13, 1.199999999999995293, 38.00000000000000000 ) ) ;
#177 = CARTESIAN_POINT ( 'NONE',  ( 5.005011502524570430E-14, 1.499999999999996891, 14.33492267835786294 ) ) ;
#178 = DIRECTION ( 'NONE',  ( 0.0000000000000000000, 1.000000000000000000, 0.0000000000000000000 ) ) ;
#179 = DIRECTION ( 'NONE',  ( 4.275831445896958607E-31, 1.000000000000000000, 1.224646799147353207E-16 ) ) ;
#180 = PLANE ( 'NONE',  #145 ) ;
#181 = AXIS2_PLACEMENT_3D ( 'NONE', #193, #111, #79 ) ;
#182 = APPROVAL_ROLE ( '' ) ;
#183 = PERSON_AND_ORGANIZATION ( #28, #23 ) ;
#184 = ADVANCED_FACE ( 'NONE', ( #115, #93 ), #31, .T. ) ;
#185 = CARTESIAN_POINT ( 'NONE',  ( 0.0000000000000000000, 0.0000000000000000000, 0.0000000000000000000 ) ) ;
#186 = VERTEX_POINT ( 'NONE', #150 ) ;
#187 = APPROVAL_ROLE ( '' ) ;
#188 = APPROVAL ( #67, 'UNSPECIFIED' ) ;
#189 = ADVANCED_FACE ( 'NONE', ( #130 ), #24, .T. ) ;
#190 = UNCERTAINTY_MEASURE_WITH_UNIT (LENGTH_MEASURE( 1.000000000000000082E-05 ), #68, 'distance_accuracy_value', 'NONE');
#191 = EDGE_CURVE ( 'NONE', #149, #149, #200, .T. ) ;
#192 = DIRECTION ( 'NONE',  ( 0.0000000000000000000, -1.000000000000000000, 0.0000000000000000000 ) ) ;
#193 = CARTESIAN_POINT ( 'NONE',  ( 5.005011502524570430E-14, -1.762896631123045583E-15, 14.33492267835786294 ) ) ;
#194 = DIRECTION ( 'NONE',  ( 3.491481338843133355E-15, -1.224646799147353207E-16, 1.000000000000000000 ) ) ;
#195 = DIRECTION ( 'NONE',  ( 4.293794133377662246E-31, 1.000000000000000000, 1.229791517316362731E-16 ) ) ;
#196 = PRODUCT_RELATED_PRODUCT_CATEGORY ( 'detail', '', ( #166 ) ) ;
#197 = DIRECTION ( 'NONE',  ( -3.491481338843133355E-15, 1.229791517316362731E-16, -1.000000000000000000 ) ) ;
#198 = DATE_AND_TIME ( #106, #212 ) ;
#199 = ADVANCED_FACE ( 'NONE', ( #3, #146 ), #7, .T. ) ;
#200 = CIRCLE ( 'NONE', #109, 0.6599999999999950351 ) ;
#201 = DATE_TIME_ROLE ( 'creation_date' ) ;
#202 = SECURITY_CLASSIFICATION_LEVEL ( 'unclassified' ) ;
#203 = EDGE_CURVE ( 'NONE', #40, #40, #56, .T. ) ;
#204 = LOCAL_TIME ( 11, 23, 4.000000000000000000, #140 ) ;
#205 = ORIENTED_EDGE ( 'NONE', *, *, #108, .F. ) ;
#206 = ORIENTED_EDGE ( 'NONE', *, *, #121, .T. ) ;
#207 = PLANE ( 'NONE',  #45 ) ;
#208 = ORIENTED_EDGE ( 'NONE', *, *, #191, .T. ) ;
#209 = DIRECTION ( 'NONE',  ( -3.491481338843133355E-15, 1.224646799147353207E-16, -1.000000000000000000 ) ) ;
#210 = DIRECTION ( 'NONE',  ( -4.377113509971023458E-31, -1.000000000000000000, -1.232047923278991567E-16 ) ) ;
#211 = DIRECTION ( 'NONE',  ( 4.275831445896958607E-31, 1.000000000000000000, 1.224646799147353207E-16 ) ) ;
#212 = LOCAL_TIME ( 11, 23, 4.000000000000000000, #155 ) ;
#213 = CARTESIAN_POINT ( 'NONE',  ( 1.326762908760390423E-13, -4.653657836759941941E-15, 38.00000000000000000 ) ) ;
#214 = COORDINATED_UNIVERSAL_TIME_OFFSET ( 1, 0, .AHEAD. ) ;
#215 = AXIS2_PLACEMENT_3D ( 'NONE', #185, #134, #51 ) ;
#216 = COORDINATED_UNIVERSAL_TIME_OFFSET ( 1, 0, .AHEAD. ) ;
#217 = APPROVAL_DATE_TIME ( #153, #96 ) ;
#218 = MECHANICAL_CONTEXT ( 'NONE', #87, 'mechanical' ) ;
#219 = EDGE_CURVE ( 'NONE', #186, #186, #12, .T. ) ;
#220 = APPROVAL_DATE_TIME ( #158, #157 ) ;
#221 = EDGE_LOOP ( 'NONE', ( #205 ) ) ;
#222 = ORIENTED_EDGE ( 'NONE', *, *, #121, .F. ) ;
#223 = SHAPE_DEFINITION_REPRESENTATION ( #99, #122 ) ;
ENDSEC;
END-ISO-10303-21;
