ISO-10303-21;
HEADER;
FILE_DESCRIPTION (( 'STEP AP203' ),
    '1' );
FILE_NAME ('962921.step',
    '2021-10-28T09:23:03',
    ( '' ),
    ( '' ),
    'SwSTEP 2.0',
    'SolidWorks 2019',
    '' );
FILE_SCHEMA (( 'CONFIG_CONTROL_DESIGN' ));
ENDSEC;

DATA;
#1 = DIRECTION ( 'NONE',  ( 4.275831445896958607E-31, 1.000000000000000000, 1.224646799147353207E-16 ) ) ;
#2 = UNCERTAINTY_MEASURE_WITH_UNIT (LENGTH_MEASURE( 1.000000000000000082E-05 ), #109, 'distance_accuracy_value', 'NONE');
#3 = ORGANIZATION ( 'UNSPECIFIED', 'UNSPECIFIED', '' ) ;
#4 = DIRECTION ( 'NONE',  ( 3.491481338843133355E-15, -1.229791517316362731E-16, 1.000000000000000000 ) ) ;
#5 = APPLICATION_CONTEXT ( 'configuration controlled 3d designs of mechanical parts and assemblies' ) ;
#6 = CARTESIAN_POINT ( 'NONE',  ( 1.906192921252232855E-15, -6.686024735685322183E-17, 0.5459553513993090634 ) ) ;
#7 = COORDINATED_UNIVERSAL_TIME_OFFSET ( 1, 0, .AHEAD. ) ;
#8 = CARTESIAN_POINT ( 'NONE',  ( 3.910459099504309358E-14, -1.377366499394326377E-15, 11.19999999999999929 ) ) ;
#9 = PRODUCT_DEFINITION ( 'UNKNOWN', '', #136, #119 ) ;
#10 = PERSON_AND_ORGANIZATION_ROLE ( 'creator' ) ;
#11 = DIRECTION ( 'NONE',  ( 0.0000000000000000000, 1.000000000000000000, 0.0000000000000000000 ) ) ;
#12 = PERSON_AND_ORGANIZATION ( #92, #3 ) ;
#13 = CONICAL_SURFACE ( 'NONE', #132, 1.499999999999998668, 0.2617993877991500740 ) ;
#14 = DIRECTION ( 'NONE',  ( 4.275831445896958607E-31, 1.000000000000000000, 1.224646799147353207E-16 ) ) ;
#15 = SHAPE_DEFINITION_REPRESENTATION ( #164, #83 ) ;
#16 = AXIS2_PLACEMENT_3D ( 'NONE', #169, #210, #91 ) ;
#17 = CC_DESIGN_DATE_AND_TIME_ASSIGNMENT ( #28, #211, ( #9 ) ) ;
#18 = DIRECTION ( 'NONE',  ( 3.491481338843133355E-15, -1.224646799147353207E-16, 1.000000000000000000 ) ) ;
#19 = CIRCLE ( 'NONE', #115, 0.6550000000000000266 ) ;
#20 = DIRECTION ( 'NONE',  ( 0.0000000000000000000, -1.000000000000000000, 0.0000000000000000000 ) ) ;
#21 = EDGE_LOOP ( 'NONE', ( #170 ) ) ;
#22 = APPROVAL_PERSON_ORGANIZATION ( #87, #221, #217 ) ;
#23 = ORIENTED_EDGE ( 'NONE', *, *, #30, .T. ) ;
#24 = PERSON_AND_ORGANIZATION ( #92, #3 ) ;
#25 = ADVANCED_FACE ( 'NONE', ( #215, #56 ), #148, .T. ) ;
#26 = APPROVAL_DATE_TIME ( #129, #110 ) ;
#27 = CARTESIAN_POINT ( 'NONE',  ( 1.326762908760390423E-13, -4.653657836759941941E-15, 38.00000000000000000 ) ) ;
#28 = DATE_AND_TIME ( #195, #112 ) ;
#29 = COORDINATED_UNIVERSAL_TIME_OFFSET ( 1, 0, .AHEAD. ) ;
#30 = EDGE_CURVE ( 'NONE', #206, #206, #75, .T. ) ;
#31 = SECURITY_CLASSIFICATION ( '', '', #147 ) ;
#32 = CC_DESIGN_PERSON_AND_ORGANIZATION_ASSIGNMENT ( #216, #59, ( #31 ) ) ;
#33 = CONICAL_SURFACE ( 'NONE', #61, 1.499999999999995559, 1.221730476396026388 ) ;
#34 = DIRECTION ( 'NONE',  ( 3.491481338843133355E-15, -1.224646799147353207E-16, 1.000000000000000000 ) ) ;
#35 = EDGE_LOOP ( 'NONE', ( #159 ) ) ;
#36 = CARTESIAN_POINT ( 'NONE',  ( 0.0000000000000000000, 0.0000000000000000000, 0.0000000000000000000 ) ) ;
#37 = ORIENTED_EDGE ( 'NONE', *, *, #60, .T. ) ;
#38 = DIRECTION ( 'NONE',  ( -4.275831445896958607E-31, -1.000000000000000000, -1.224646799147353207E-16 ) ) ;
#39 = DIRECTION ( 'NONE',  ( 4.293794133377661370E-31, 1.000000000000000000, 1.229791517316362731E-16 ) ) ;
#40 = DATE_TIME_ROLE ( 'classification_date' ) ;
#41 = APPLICATION_PROTOCOL_DEFINITION ( 'international standard', 'config_control_design', 1994, #149 ) ;
#42 = APPROVAL_PERSON_ORGANIZATION ( #24, #189, #180 ) ;
#43 = CARTESIAN_POINT ( 'NONE',  ( 8.323709089468101349E-16, -0.6550000000000000266, 0.2384005034443654747 ) ) ;
#44 = APPROVAL_STATUS ( 'not_yet_approved' ) ;
#45 = CALENDAR_DATE ( 2021, 28, 10 ) ;
#46 = CC_DESIGN_PERSON_AND_ORGANIZATION_ASSIGNMENT ( #55, #143, ( #212 ) ) ;
#47 = FACE_BOUND ( 'NONE', #117, .T. ) ;
#48 = AXIS2_PLACEMENT_3D ( 'NONE', #8, #111, #97 ) ;
#49 = FACE_BOUND ( 'NONE', #194, .T. ) ;
#50 = MANIFOLD_SOLID_BREP ( 'Corps-Déplacer/Copier1[2]', #66 ) ;
#51 = ORIENTED_EDGE ( 'NONE', *, *, #125, .F. ) ;
#52 = VERTEX_POINT ( 'NONE', #176 ) ;
#53 = EDGE_LOOP ( 'NONE', ( #135 ) ) ;
#54 = CLOSED_SHELL ( 'NONE', ( #25, #79, #100, #172, #90 ) ) ;
#55 = PERSON_AND_ORGANIZATION ( #92, #3 ) ;
#56 = FACE_OUTER_BOUND ( 'NONE', #78, .T. ) ;
#57 = DATE_AND_TIME ( #213, #186 ) ;
#58 = APPROVAL_ROLE ( '' ) ;
#59 = PERSON_AND_ORGANIZATION_ROLE ( 'classification_officer' ) ;
#60 = EDGE_CURVE ( 'NONE', #52, #52, #69, .T. ) ;
#61 = AXIS2_PLACEMENT_3D ( 'NONE', #6, #34, #105 ) ;
#62 = AXIS2_PLACEMENT_3D ( 'NONE', #127, #165, #14 ) ;
#63 = CARTESIAN_POINT ( 'NONE',  ( 5.011526695399684946E-14, -1.765191453335714243E-15, 14.35358293239568894 ) ) ;
#64 = EDGE_LOOP ( 'NONE', ( #205 ) ) ;
#65 = APPROVAL_PERSON_ORGANIZATION ( #144, #110, #58 ) ;
#66 = CLOSED_SHELL ( 'NONE', ( #155, #222, #203 ) ) ;
#67 = FACE_OUTER_BOUND ( 'NONE', #35, .T. ) ;
#68 = ORIENTED_EDGE ( 'NONE', *, *, #71, .F. ) ;
#69 = CIRCLE ( 'NONE', #96, 1.499999999999999778 ) ;
#70 =( NAMED_UNIT ( * ) SI_UNIT ( $, .STERADIAN. ) SOLID_ANGLE_UNIT ( ) );
#71 = EDGE_CURVE ( 'NONE', #81, #81, #193, .T. ) ;
#72 = COORDINATED_UNIVERSAL_TIME_OFFSET ( 1, 0, .AHEAD. ) ;
#73 = DIRECTION ( 'NONE',  ( 0.0000000000000000000, 1.000000000000000000, 0.0000000000000000000 ) ) ;
#74 = CIRCLE ( 'NONE', #93, 0.6550000000000000266 ) ;
#75 = CIRCLE ( 'NONE', #220, 1.199999999999999956 ) ;
#76 = DIRECTION ( 'NONE',  ( -4.275831445896958607E-31, -1.000000000000000000, -1.224646799147353207E-16 ) ) ;
#77 = DIRECTION ( 'NONE',  ( -4.410526590199776916E-31, -1.000000000000000000, -1.241452869258211227E-16 ) ) ;
#78 = EDGE_LOOP ( 'NONE', ( #37 ) ) ;
#79 = ADVANCED_FACE ( 'NONE', ( #131, #47 ), #188, .T. ) ;
#80 = CARTESIAN_POINT ( 'NONE',  ( 8.323709089468104308E-16, -2.919564134582597942E-17, 0.2384005034443655580 ) ) ;
#81 = VERTEX_POINT ( 'NONE', #157 ) ;
#82 = LOCAL_TIME ( 11, 23, 3.000000000000000000, #29 ) ;
#83 = ADVANCED_BREP_SHAPE_REPRESENTATION ( '962921', ( #122, #50, #16 ), #202 ) ;
#84 = CC_DESIGN_PERSON_AND_ORGANIZATION_ASSIGNMENT ( #12, #184, ( #136 ) ) ;
#85 = DIRECTION ( 'NONE',  ( -3.491481338843133355E-15, 1.229791517316362731E-16, -1.000000000000000000 ) ) ;
#86 = EDGE_LOOP ( 'NONE', ( #138 ) ) ;
#87 = PERSON_AND_ORGANIZATION ( #92, #3 ) ;
#88 = CIRCLE ( 'NONE', #219, 1.499999999999998668 ) ;
#89 = PERSON_AND_ORGANIZATION ( #92, #3 ) ;
#90 = ADVANCED_FACE ( 'NONE', ( #218 ), #187, .F. ) ;
#91 = DIRECTION ( 'NONE',  ( 1.000000000000000000, 0.0000000000000000000, 0.0000000000000000000 ) ) ;
#92 = PERSON ( 'UNSPECIFIED', 'UNSPECIFIED', 'UNSPECIFIED', ('UNSPECIFIED'), ('UNSPECIFIED'), ('UNSPECIFIED') ) ;
#93 = AXIS2_PLACEMENT_3D ( 'NONE', #192, #133, #134 ) ;
#94 = DATE_AND_TIME ( #45, #82 ) ;
#95 = LOCAL_TIME ( 11, 23, 3.000000000000000000, #7 ) ;
#96 = AXIS2_PLACEMENT_3D ( 'NONE', #181, #163, #73 ) ;
#97 = DIRECTION ( 'NONE',  ( 0.0000000000000000000, 1.000000000000000000, 0.0000000000000000000 ) ) ;
#98 = PLANE ( 'NONE',  #177 ) ;
#99 = CC_DESIGN_SECURITY_CLASSIFICATION ( #31, ( #136 ) ) ;
#100 = ADVANCED_FACE ( 'NONE', ( #223 ), #98, .F. ) ;
#101 = DIRECTION ( 'NONE',  ( 0.0000000000000000000, 1.000000000000000000, 0.0000000000000000000 ) ) ;
#102 = EDGE_LOOP ( 'NONE', ( #178 ) ) ;
#103 = DIRECTION ( 'NONE',  ( -3.491481338843133355E-15, 1.229791517316362731E-16, -1.000000000000000000 ) ) ;
#104 = CYLINDRICAL_SURFACE ( 'NONE', #201, 0.6550000000000000266 ) ;
#105 = DIRECTION ( 'NONE',  ( -5.135813185032644414E-31, -1.000000000000000000, -1.445602896647343601E-16 ) ) ;
#106 = CC_DESIGN_APPROVAL ( #189, ( #9 ) ) ;
#107 = AXIS2_PLACEMENT_3D ( 'NONE', #151, #173, #152 ) ;
#108 = APPROVAL_STATUS ( 'not_yet_approved' ) ;
#109 =( LENGTH_UNIT ( ) NAMED_UNIT ( * ) SI_UNIT ( .MILLI., .METRE. ) );
#110 = APPROVAL ( #44, 'UNSPECIFIED' ) ;
#111 = DIRECTION ( 'NONE',  ( -3.491481338843133355E-15, 1.229791517316362731E-16, -1.000000000000000000 ) ) ;
#112 = LOCAL_TIME ( 11, 23, 3.000000000000000000, #72 ) ;
#113 = PERSON_AND_ORGANIZATION_ROLE ( 'creator' ) ;
#114 = CALENDAR_DATE ( 2021, 28, 10 ) ;
#115 = AXIS2_PLACEMENT_3D ( 'NONE', #80, #204, #77 ) ;
#116 = CARTESIAN_POINT ( 'NONE',  ( 3.910459099504309358E-14, 1.124819836996388827E-32, 11.19999999999999929 ) ) ;
#117 = EDGE_LOOP ( 'NONE', ( #23 ) ) ;
#118 = AXIS2_PLACEMENT_3D ( 'NONE', #175, #123, #38 ) ;
#119 = DESIGN_CONTEXT ( 'detailed design', #149, 'design' ) ;
#120 = EDGE_LOOP ( 'NONE', ( #51 ) ) ;
#121 = EDGE_LOOP ( 'NONE', ( #191 ) ) ;
#122 = MANIFOLD_SOLID_BREP ( 'Corps-Déplacer/Copier1[1]', #54 ) ;
#123 = DIRECTION ( 'NONE',  ( 3.491481338843133355E-15, -1.224646799147353207E-16, 1.000000000000000000 ) ) ;
#124 = MECHANICAL_CONTEXT ( 'NONE', #5, 'mechanical' ) ;
#125 = EDGE_CURVE ( 'NONE', #139, #139, #88, .T. ) ;
#126 = VERTEX_POINT ( 'NONE', #43 ) ;
#127 = CARTESIAN_POINT ( 'NONE',  ( 0.0000000000000000000, 0.0000000000000000000, 0.0000000000000000000 ) ) ;
#128 = CC_DESIGN_APPROVAL ( #110, ( #136 ) ) ;
#129 = DATE_AND_TIME ( #196, #95 ) ;
#130 = COORDINATED_UNIVERSAL_TIME_OFFSET ( 1, 0, .AHEAD. ) ;
#131 = FACE_OUTER_BOUND ( 'NONE', #121, .T. ) ;
#132 = AXIS2_PLACEMENT_3D ( 'NONE', #158, #4, #20 ) ;
#133 = DIRECTION ( 'NONE',  ( -3.491481338843133355E-15, 1.229791517316362731E-16, -1.000000000000000000 ) ) ;
#134 = DIRECTION ( 'NONE',  ( 0.0000000000000000000, 1.000000000000000000, 0.0000000000000000000 ) ) ;
#135 = ORIENTED_EDGE ( 'NONE', *, *, #183, .T. ) ;
#136 = PRODUCT_DEFINITION_FORMATION_WITH_SPECIFIED_SOURCE ( 'ANY', '', #212, .NOT_KNOWN. ) ;
#137 = CARTESIAN_POINT ( 'NONE',  ( 1.326762908760390423E-13, 1.199999999999995293, 38.00000000000000000 ) ) ;
#138 = ORIENTED_EDGE ( 'NONE', *, *, #142, .F. ) ;
#139 = VERTEX_POINT ( 'NONE', #208 ) ;
#140 = FACE_OUTER_BOUND ( 'NONE', #21, .T. ) ;
#141 = EDGE_LOOP ( 'NONE', ( #207 ) ) ;
#142 = EDGE_CURVE ( 'NONE', #145, #145, #74, .T. ) ;
#143 = PERSON_AND_ORGANIZATION_ROLE ( 'design_owner' ) ;
#144 = PERSON_AND_ORGANIZATION ( #92, #3 ) ;
#145 = VERTEX_POINT ( 'NONE', #199 ) ;
#146 = CC_DESIGN_APPROVAL ( #221, ( #31 ) ) ;
#147 = SECURITY_CLASSIFICATION_LEVEL ( 'unclassified' ) ;
#148 = CYLINDRICAL_SURFACE ( 'NONE', #62, 1.499999999999998224 ) ;
#149 = APPLICATION_CONTEXT ( 'configuration controlled 3d designs of mechanical parts and assemblies' ) ;
#150 = CC_DESIGN_PERSON_AND_ORGANIZATION_ASSIGNMENT ( #162, #10, ( #9 ) ) ;
#151 = CARTESIAN_POINT ( 'NONE',  ( 1.326762908760390423E-13, -4.653657836759941941E-15, 38.00000000000000000 ) ) ;
#152 = DIRECTION ( 'NONE',  ( 0.0000000000000000000, 1.000000000000000000, 0.0000000000000000000 ) ) ;
#153 = FACE_OUTER_BOUND ( 'NONE', #53, .T. ) ;
#154 = FACE_OUTER_BOUND ( 'NONE', #64, .T. ) ;
#155 = ADVANCED_FACE ( 'NONE', ( #179 ), #190, .T. ) ;
#156 = LOCAL_TIME ( 11, 23, 3.000000000000000000, #130 ) ;
#157 = CARTESIAN_POINT ( 'NONE',  ( 3.910459099504309358E-14, 0.6549999999999985834, 11.19999999999999929 ) ) ;
#158 = CARTESIAN_POINT ( 'NONE',  ( 5.011526695399684946E-14, -1.765191453335714243E-15, 14.35358293239568894 ) ) ;
#159 = ORIENTED_EDGE ( 'NONE', *, *, #125, .T. ) ;
#160 = APPROVAL_STATUS ( 'not_yet_approved' ) ;
#161 = CC_DESIGN_DATE_AND_TIME_ASSIGNMENT ( #185, #40, ( #31 ) ) ;
#162 = PERSON_AND_ORGANIZATION ( #92, #3 ) ;
#163 = DIRECTION ( 'NONE',  ( -3.491481338843133355E-15, 1.224646799147353207E-16, -1.000000000000000000 ) ) ;
#164 = PRODUCT_DEFINITION_SHAPE ( 'NONE', 'NONE',  #9 ) ;
#165 = DIRECTION ( 'NONE',  ( -3.491481338843133355E-15, 1.224646799147353207E-16, -1.000000000000000000 ) ) ;
#166 = PRODUCT_RELATED_PRODUCT_CATEGORY ( 'detail', '', ( #212 ) ) ;
#167 = APPROVAL_DATE_TIME ( #57, #189 ) ;
#168 = DIRECTION ( 'NONE',  ( -3.491481338843133355E-15, 1.224646799147353207E-16, -1.000000000000000000 ) ) ;
#169 = CARTESIAN_POINT ( 'NONE',  ( 0.0000000000000000000, 0.0000000000000000000, 0.0000000000000000000 ) ) ;
#170 = ORIENTED_EDGE ( 'NONE', *, *, #183, .F. ) ;
#171 = APPROVAL_DATE_TIME ( #94, #221 ) ;
#172 = ADVANCED_FACE ( 'NONE', ( #49, #67 ), #13, .T. ) ;
#173 = DIRECTION ( 'NONE',  ( -3.491481338843133355E-15, 1.224646799147353207E-16, -1.000000000000000000 ) ) ;
#174 = DIRECTION ( 'NONE',  ( -3.491481338843133355E-15, 1.224646799147353207E-16, -1.000000000000000000 ) ) ;
#175 = CARTESIAN_POINT ( 'NONE',  ( 3.910459099504309358E-14, 1.124819836996388827E-32, 11.19999999999999929 ) ) ;
#176 = CARTESIAN_POINT ( 'NONE',  ( 1.316288464743861212E-13, 1.499999999999995337, 37.69999999999999574 ) ) ;
#177 = AXIS2_PLACEMENT_3D ( 'NONE', #200, #174, #1 ) ;
#178 = ORIENTED_EDGE ( 'NONE', *, *, #71, .T. ) ;
#179 = FACE_OUTER_BOUND ( 'NONE', #86, .T. ) ;
#180 = APPROVAL_ROLE ( '' ) ;
#181 = CARTESIAN_POINT ( 'NONE',  ( 1.316288464743861212E-13, -4.616918432785521081E-15, 37.69999999999999574 ) ) ;
#182 = COORDINATED_UNIVERSAL_TIME_OFFSET ( 1, 0, .AHEAD. ) ;
#183 = EDGE_CURVE ( 'NONE', #126, #126, #19, .T. ) ;
#184 = PERSON_AND_ORGANIZATION_ROLE ( 'design_supplier' ) ;
#185 = DATE_AND_TIME ( #114, #156 ) ;
#186 = LOCAL_TIME ( 11, 23, 3.000000000000000000, #182 ) ;
#187 = PLANE ( 'NONE',  #209 ) ;
#188 = CONICAL_SURFACE ( 'NONE', #107, 1.199999999999999956, 0.7853981633974453924 ) ;
#189 = APPROVAL ( #160, 'UNSPECIFIED' ) ;
#190 = PLANE ( 'NONE',  #118 ) ;
#191 = ORIENTED_EDGE ( 'NONE', *, *, #60, .F. ) ;
#192 = CARTESIAN_POINT ( 'NONE',  ( 3.910459099504309358E-14, -1.377366499394326377E-15, 11.19999999999999929 ) ) ;
#193 = CIRCLE ( 'NONE', #48, 0.6550000000000000266 ) ;
#194 = EDGE_LOOP ( 'NONE', ( #68 ) ) ;
#195 = CALENDAR_DATE ( 2021, 28, 10 ) ;
#196 = CALENDAR_DATE ( 2021, 28, 10 ) ;
#197 = APPLICATION_PROTOCOL_DEFINITION ( 'international standard', 'config_control_design', 1994, #5 ) ;
#198 = CC_DESIGN_PERSON_AND_ORGANIZATION_ASSIGNMENT ( #89, #113, ( #136 ) ) ;
#199 = CARTESIAN_POINT ( 'NONE',  ( 3.910459099504309358E-14, 0.6549999999999985834, 11.19999999999999929 ) ) ;
#200 = CARTESIAN_POINT ( 'NONE',  ( 1.326762908760390423E-13, 8.998558695971077224E-33, 38.00000000000000000 ) ) ;
#201 = AXIS2_PLACEMENT_3D ( 'NONE', #36, #103, #39 ) ;
#202 =( GEOMETRIC_REPRESENTATION_CONTEXT ( 3 ) GLOBAL_UNCERTAINTY_ASSIGNED_CONTEXT ( ( #2 ) ) GLOBAL_UNIT_ASSIGNED_CONTEXT ( ( #109, #214, #70 ) ) REPRESENTATION_CONTEXT ( 'NONE', 'WORKASPACE' ) );
#203 = ADVANCED_FACE ( 'NONE', ( #153 ), #33, .T. ) ;
#204 = DIRECTION ( 'NONE',  ( -3.491481338843133355E-15, 1.224646799147353207E-16, -1.000000000000000000 ) ) ;
#205 = ORIENTED_EDGE ( 'NONE', *, *, #142, .T. ) ;
#206 = VERTEX_POINT ( 'NONE', #137 ) ;
#207 = ORIENTED_EDGE ( 'NONE', *, *, #30, .F. ) ;
#208 = CARTESIAN_POINT ( 'NONE',  ( 5.011526695399684946E-14, 1.499999999999996891, 14.35358293239568894 ) ) ;
#209 = AXIS2_PLACEMENT_3D ( 'NONE', #116, #18, #76 ) ;
#210 = DIRECTION ( 'NONE',  ( 0.0000000000000000000, 0.0000000000000000000, 1.000000000000000000 ) ) ;
#211 = DATE_TIME_ROLE ( 'creation_date' ) ;
#212 = PRODUCT ( '962921', '962921', '', ( #124 ) ) ;
#213 = CALENDAR_DATE ( 2021, 28, 10 ) ;
#214 =( NAMED_UNIT ( * ) PLANE_ANGLE_UNIT ( ) SI_UNIT ( $, .RADIAN. ) );
#215 = FACE_OUTER_BOUND ( 'NONE', #120, .T. ) ;
#216 = PERSON_AND_ORGANIZATION ( #92, #3 ) ;
#217 = APPROVAL_ROLE ( '' ) ;
#218 = FACE_OUTER_BOUND ( 'NONE', #102, .T. ) ;
#219 = AXIS2_PLACEMENT_3D ( 'NONE', #63, #85, #101 ) ;
#220 = AXIS2_PLACEMENT_3D ( 'NONE', #27, #168, #11 ) ;
#221 = APPROVAL ( #108, 'UNSPECIFIED' ) ;
#222 = ADVANCED_FACE ( 'NONE', ( #154, #140 ), #104, .T. ) ;
#223 = FACE_OUTER_BOUND ( 'NONE', #141, .T. ) ;
ENDSEC;
END-ISO-10303-21;
