ISO-10303-21;
HEADER;
FILE_DESCRIPTION (( 'STEP AP203' ),
    '1' );
FILE_NAME ('962920.step',
    '2021-10-28T09:23:03',
    ( '' ),
    ( '' ),
    'SwSTEP 2.0',
    'SolidWorks 2019',
    '' );
FILE_SCHEMA (( 'CONFIG_CONTROL_DESIGN' ));
ENDSEC;

DATA;
#1 = FACE_BOUND ( 'NONE', #57, .T. ) ;
#2 = AXIS2_PLACEMENT_3D ( 'NONE', #170, #165, #204 ) ;
#3 = DIRECTION ( 'NONE',  ( 3.491481338843133355E-15, -1.224646799147353207E-16, 1.000000000000000000 ) ) ;
#4 = APPROVAL_ROLE ( '' ) ;
#5 = PERSON_AND_ORGANIZATION ( #7, #159 ) ;
#6 = PRODUCT_DEFINITION_FORMATION_WITH_SPECIFIED_SOURCE ( 'ANY', '', #162, .NOT_KNOWN. ) ;
#7 = PERSON ( 'UNSPECIFIED', 'UNSPECIFIED', 'UNSPECIFIED', ('UNSPECIFIED'), ('UNSPECIFIED'), ('UNSPECIFIED') ) ;
#8 = SECURITY_CLASSIFICATION_LEVEL ( 'unclassified' ) ;
#9 = APPROVAL ( #194, 'UNSPECIFIED' ) ;
#10 = COORDINATED_UNIVERSAL_TIME_OFFSET ( 1, 0, .AHEAD. ) ;
#11 =( GEOMETRIC_REPRESENTATION_CONTEXT ( 3 ) GLOBAL_UNCERTAINTY_ASSIGNED_CONTEXT ( ( #191 ) ) GLOBAL_UNIT_ASSIGNED_CONTEXT ( ( #206, #49, #89 ) ) REPRESENTATION_CONTEXT ( 'NONE', 'WORKASPACE' ) );
#12 = ORIENTED_EDGE ( 'NONE', *, *, #149, .T. ) ;
#13 = EDGE_CURVE ( 'NONE', #166, #166, #177, .T. ) ;
#14 = EDGE_LOOP ( 'NONE', ( #79 ) ) ;
#15 = DIRECTION ( 'NONE',  ( 0.0000000000000000000, 1.000000000000000000, 0.0000000000000000000 ) ) ;
#16 = ADVANCED_FACE ( 'NONE', ( #199 ), #82, .T. ) ;
#17 = CARTESIAN_POINT ( 'NONE',  ( 1.316288464743861212E-13, -4.616918432785521081E-15, 37.69999999999999574 ) ) ;
#18 = CARTESIAN_POINT ( 'NONE',  ( 3.491481338843133355E-14, 1.124819836996388827E-32, 10.00000000000000000 ) ) ;
#19 = CARTESIAN_POINT ( 'NONE',  ( 4.599064127613636081E-14, 1.499999999999996891, 13.17224318643355119 ) ) ;
#20 = CYLINDRICAL_SURFACE ( 'NONE', #121, 0.6499999999999950262 ) ;
#21 = PERSON_AND_ORGANIZATION ( #7, #159 ) ;
#22 = PERSON_AND_ORGANIZATION ( #7, #159 ) ;
#23 = PERSON_AND_ORGANIZATION_ROLE ( 'design_supplier' ) ;
#24 = CC_DESIGN_DATE_AND_TIME_ASSIGNMENT ( #124, #192, ( #111 ) ) ;
#25 = DATE_AND_TIME ( #105, #181 ) ;
#26 = APPROVAL ( #137, 'UNSPECIFIED' ) ;
#27 = ORIENTED_EDGE ( 'NONE', *, *, #169, .T. ) ;
#28 = APPROVAL_ROLE ( '' ) ;
#29 = AXIS2_PLACEMENT_3D ( 'NONE', #131, #101, #219 ) ;
#30 = DIRECTION ( 'NONE',  ( -3.491481338843133355E-15, 1.229791517316362731E-16, -1.000000000000000000 ) ) ;
#31 = ADVANCED_FACE ( 'NONE', ( #188, #205 ), #20, .T. ) ;
#32 = CARTESIAN_POINT ( 'NONE',  ( 3.491481338843133355E-14, 1.124819836996388827E-32, 10.00000000000000000 ) ) ;
#33 = CIRCLE ( 'NONE', #29, 0.6499999999999950262 ) ;
#34 = CARTESIAN_POINT ( 'NONE',  ( 1.326762908760390423E-13, -4.653657836759941941E-15, 38.00000000000000000 ) ) ;
#35 = DIRECTION ( 'NONE',  ( 0.0000000000000000000, -1.000000000000000000, 0.0000000000000000000 ) ) ;
#36 = MANIFOLD_SOLID_BREP ( 'Corps-Déplacer/Copier1[1]', #127 ) ;
#37 = DIRECTION ( 'NONE',  ( -3.491481338843133355E-15, 1.224646799147353207E-16, -1.000000000000000000 ) ) ;
#38 = CARTESIAN_POINT ( 'NONE',  ( 0.0000000000000000000, 0.0000000000000000000, 0.0000000000000000000 ) ) ;
#39 = CALENDAR_DATE ( 2021, 28, 10 ) ;
#40 = COORDINATED_UNIVERSAL_TIME_OFFSET ( 1, 0, .AHEAD. ) ;
#41 = CIRCLE ( 'NONE', #140, 1.499999999999998446 ) ;
#42 = PERSON_AND_ORGANIZATION ( #7, #159 ) ;
#43 = CARTESIAN_POINT ( 'NONE',  ( 8.260169325426301615E-16, -2.897277385463624739E-17, 0.2365806522730327377 ) ) ;
#44 = CARTESIAN_POINT ( 'NONE',  ( 1.326762908760390423E-13, 8.998558695971077224E-33, 38.00000000000000000 ) ) ;
#45 = VERTEX_POINT ( 'NONE', #19 ) ;
#46 = CIRCLE ( 'NONE', #212, 0.6499999999999950262 ) ;
#47 = FACE_OUTER_BOUND ( 'NONE', #80, .T. ) ;
#48 = DIRECTION ( 'NONE',  ( -3.491481338843133355E-15, 1.229791517316362731E-16, -1.000000000000000000 ) ) ;
#49 =( NAMED_UNIT ( * ) PLANE_ANGLE_UNIT ( ) SI_UNIT ( $, .RADIAN. ) );
#50 = CONICAL_SURFACE ( 'NONE', #153, 1.199999999999999956, 0.7853981633974453924 ) ;
#51 = CALENDAR_DATE ( 2021, 28, 10 ) ;
#52 = APPROVAL ( #210, 'UNSPECIFIED' ) ;
#53 = PERSON_AND_ORGANIZATION ( #7, #159 ) ;
#54 = CALENDAR_DATE ( 2021, 28, 10 ) ;
#55 = PERSON_AND_ORGANIZATION ( #7, #159 ) ;
#56 = ORIENTED_EDGE ( 'NONE', *, *, #64, .F. ) ;
#57 = EDGE_LOOP ( 'NONE', ( #164 ) ) ;
#58 = APPROVAL_PERSON_ORGANIZATION ( #53, #52, #92 ) ;
#59 = CC_DESIGN_PERSON_AND_ORGANIZATION_ASSIGNMENT ( #76, #139, ( #111 ) ) ;
#60 = EDGE_LOOP ( 'NONE', ( #56 ) ) ;
#61 = ORIENTED_EDGE ( 'NONE', *, *, #73, .F. ) ;
#62 = CLOSED_SHELL ( 'NONE', ( #16, #31, #107 ) ) ;
#63 = DIRECTION ( 'NONE',  ( -4.275831445896958607E-31, -1.000000000000000000, -1.224646799147353207E-16 ) ) ;
#64 = EDGE_CURVE ( 'NONE', #150, #150, #46, .T. ) ;
#65 = AXIS2_PLACEMENT_3D ( 'NONE', #147, #100, #102 ) ;
#66 = DIRECTION ( 'NONE',  ( 0.0000000000000000000, 1.000000000000000000, 0.0000000000000000000 ) ) ;
#67 = DIRECTION ( 'NONE',  ( 3.491481338843133355E-15, -1.224646799147353207E-16, 1.000000000000000000 ) ) ;
#68 = AXIS2_PLACEMENT_3D ( 'NONE', #180, #128, #15 ) ;
#69 = DIRECTION ( 'NONE',  ( 3.491481338843133355E-15, -1.224646799147353207E-16, 1.000000000000000000 ) ) ;
#70 = DIRECTION ( 'NONE',  ( -3.491481338843133355E-15, 1.224646799147353207E-16, -1.000000000000000000 ) ) ;
#71 = CC_DESIGN_SECURITY_CLASSIFICATION ( #111, ( #6 ) ) ;
#72 = VERTEX_POINT ( 'NONE', #136 ) ;
#73 = EDGE_CURVE ( 'NONE', #45, #45, #41, .T. ) ;
#74 = CC_DESIGN_APPROVAL ( #26, ( #211 ) ) ;
#75 = DATE_AND_TIME ( #51, #179 ) ;
#76 = PERSON_AND_ORGANIZATION ( #7, #159 ) ;
#77 = DATE_AND_TIME ( #39, #220 ) ;
#78 = AXIS2_PLACEMENT_3D ( 'NONE', #44, #37, #167 ) ;
#79 = ORIENTED_EDGE ( 'NONE', *, *, #138, .F. ) ;
#80 = EDGE_LOOP ( 'NONE', ( #98 ) ) ;
#81 = CC_DESIGN_PERSON_AND_ORGANIZATION_ASSIGNMENT ( #21, #23, ( #6 ) ) ;
#82 = PLANE ( 'NONE',  #91 ) ;
#83 = DIRECTION ( 'NONE',  ( -5.135813185032644414E-31, -1.000000000000000000, -1.445602896647343601E-16 ) ) ;
#84 = CIRCLE ( 'NONE', #197, 1.499999999999999778 ) ;
#85 = CARTESIAN_POINT ( 'NONE',  ( 1.326762908760390423E-13, 1.199999999999995293, 38.00000000000000000 ) ) ;
#86 = VERTEX_POINT ( 'NONE', #168 ) ;
#87 = DIRECTION ( 'NONE',  ( -3.491481338843133355E-15, 1.224646799147353207E-16, -1.000000000000000000 ) ) ;
#88 = AXIS2_PLACEMENT_3D ( 'NONE', #202, #120, #35 ) ;
#89 =( NAMED_UNIT ( * ) SI_UNIT ( $, .STERADIAN. ) SOLID_ANGLE_UNIT ( ) );
#90 = APPLICATION_PROTOCOL_DEFINITION ( 'international standard', 'config_control_design', 1994, #104 ) ;
#91 = AXIS2_PLACEMENT_3D ( 'NONE', #32, #3, #200 ) ;
#92 = APPROVAL_ROLE ( '' ) ;
#93 = CALENDAR_DATE ( 2021, 28, 10 ) ;
#94 = CC_DESIGN_DATE_AND_TIME_ASSIGNMENT ( #77, #155, ( #211 ) ) ;
#95 = ADVANCED_BREP_SHAPE_REPRESENTATION ( '962920', ( #36, #182, #129 ), #11 ) ;
#96 = CIRCLE ( 'NONE', #2, 0.6499999999999950262 ) ;
#97 = PRODUCT_DEFINITION_SHAPE ( 'NONE', 'NONE',  #211 ) ;
#98 = ORIENTED_EDGE ( 'NONE', *, *, #73, .T. ) ;
#99 = FACE_OUTER_BOUND ( 'NONE', #113, .T. ) ;
#100 = DIRECTION ( 'NONE',  ( -3.491481338843133355E-15, 1.224646799147353207E-16, -1.000000000000000000 ) ) ;
#101 = DIRECTION ( 'NONE',  ( -3.491481338843133355E-15, 1.229791517316362731E-16, -1.000000000000000000 ) ) ;
#102 = DIRECTION ( 'NONE',  ( 4.275831445896958607E-31, 1.000000000000000000, 1.224646799147353207E-16 ) ) ;
#103 = PLANE ( 'NONE',  #78 ) ;
#104 = APPLICATION_CONTEXT ( 'configuration controlled 3d designs of mechanical parts and assemblies' ) ;
#105 = CALENDAR_DATE ( 2021, 28, 10 ) ;
#106 = MECHANICAL_CONTEXT ( 'NONE', #104, 'mechanical' ) ;
#107 = ADVANCED_FACE ( 'NONE', ( #99 ), #161, .T. ) ;
#108 = LOCAL_TIME ( 11, 23, 3.000000000000000000, #160 ) ;
#109 = APPROVAL_DATE_TIME ( #25, #52 ) ;
#110 = SHAPE_DEFINITION_REPRESENTATION ( #97, #95 ) ;
#111 = SECURITY_CLASSIFICATION ( '', '', #8 ) ;
#112 = ORIENTED_EDGE ( 'NONE', *, *, #64, .T. ) ;
#113 = EDGE_LOOP ( 'NONE', ( #112 ) ) ;
#114 = CARTESIAN_POINT ( 'NONE',  ( 4.599064127613636081E-14, -1.619911293470423644E-15, 13.17224318643355119 ) ) ;
#115 = CYLINDRICAL_SURFACE ( 'NONE', #65, 1.499999999999998224 ) ;
#116 = CC_DESIGN_PERSON_AND_ORGANIZATION_ASSIGNMENT ( #55, #174, ( #6 ) ) ;
#117 = DIRECTION ( 'NONE',  ( -3.491481338843133355E-15, 1.224646799147353207E-16, -1.000000000000000000 ) ) ;
#118 = AXIS2_PLACEMENT_3D ( 'NONE', #18, #67, #63 ) ;
#119 = FACE_OUTER_BOUND ( 'NONE', #126, .T. ) ;
#120 = DIRECTION ( 'NONE',  ( 3.491481338843133355E-15, -1.229791517316362731E-16, 1.000000000000000000 ) ) ;
#121 = AXIS2_PLACEMENT_3D ( 'NONE', #187, #30, #186 ) ;
#122 = COORDINATED_UNIVERSAL_TIME_OFFSET ( 1, 0, .AHEAD. ) ;
#123 = DESIGN_CONTEXT ( 'detailed design', #213, 'design' ) ;
#124 = DATE_AND_TIME ( #54, #163 ) ;
#125 = PERSON_AND_ORGANIZATION_ROLE ( 'creator' ) ;
#126 = EDGE_LOOP ( 'NONE', ( #198 ) ) ;
#127 = CLOSED_SHELL ( 'NONE', ( #223, #156, #216, #195, #142 ) ) ;
#128 = DIRECTION ( 'NONE',  ( -3.491481338843133355E-15, 1.224646799147353207E-16, -1.000000000000000000 ) ) ;
#129 = AXIS2_PLACEMENT_3D ( 'NONE', #38, #190, #158 ) ;
#130 = FACE_OUTER_BOUND ( 'NONE', #214, .T. ) ;
#131 = CARTESIAN_POINT ( 'NONE',  ( 3.491481338843133355E-14, -1.229791517316362583E-15, 10.00000000000000000 ) ) ;
#132 = CC_DESIGN_PERSON_AND_ORGANIZATION_ASSIGNMENT ( #5, #125, ( #211 ) ) ;
#133 = DIRECTION ( 'NONE',  ( -4.444453717816732144E-31, -1.000000000000000000, -1.251002506714053154E-16 ) ) ;
#134 = FACE_OUTER_BOUND ( 'NONE', #215, .T. ) ;
#135 = VERTEX_POINT ( 'NONE', #207 ) ;
#136 = CARTESIAN_POINT ( 'NONE',  ( 3.491481338843133355E-14, 0.6499999999999938050, 10.00000000000000000 ) ) ;
#137 = APPROVAL_STATUS ( 'not_yet_approved' ) ;
#138 = EDGE_CURVE ( 'NONE', #86, #86, #96, .T. ) ;
#139 = PERSON_AND_ORGANIZATION_ROLE ( 'classification_officer' ) ;
#140 = AXIS2_PLACEMENT_3D ( 'NONE', #114, #48, #151 ) ;
#141 = EDGE_LOOP ( 'NONE', ( #143 ) ) ;
#142 = ADVANCED_FACE ( 'NONE', ( #184 ), #185, .F. ) ;
#143 = ORIENTED_EDGE ( 'NONE', *, *, #13, .T. ) ;
#144 = CONICAL_SURFACE ( 'NONE', #88, 1.499999999999998446, 0.2617993877991500740 ) ;
#145 = EDGE_LOOP ( 'NONE', ( #146 ) ) ;
#146 = ORIENTED_EDGE ( 'NONE', *, *, #138, .T. ) ;
#147 = CARTESIAN_POINT ( 'NONE',  ( 0.0000000000000000000, 0.0000000000000000000, 0.0000000000000000000 ) ) ;
#148 = DIRECTION ( 'NONE',  ( 0.0000000000000000000, 1.000000000000000000, 0.0000000000000000000 ) ) ;
#149 = EDGE_CURVE ( 'NONE', #135, #135, #84, .T. ) ;
#150 = VERTEX_POINT ( 'NONE', #222 ) ;
#151 = DIRECTION ( 'NONE',  ( 0.0000000000000000000, 1.000000000000000000, 0.0000000000000000000 ) ) ;
#152 = CARTESIAN_POINT ( 'NONE',  ( 1.906192921252232855E-15, -6.686024735685322183E-17, 0.5459553513993090634 ) ) ;
#153 = AXIS2_PLACEMENT_3D ( 'NONE', #34, #87, #66 ) ;
#154 = APPLICATION_PROTOCOL_DEFINITION ( 'international standard', 'config_control_design', 1994, #213 ) ;
#155 = DATE_TIME_ROLE ( 'creation_date' ) ;
#156 = ADVANCED_FACE ( 'NONE', ( #221, #201 ), #50, .T. ) ;
#157 = PERSON_AND_ORGANIZATION_ROLE ( 'design_owner' ) ;
#158 = DIRECTION ( 'NONE',  ( 1.000000000000000000, 0.0000000000000000000, 0.0000000000000000000 ) ) ;
#159 = ORGANIZATION ( 'UNSPECIFIED', 'UNSPECIFIED', '' ) ;
#160 = COORDINATED_UNIVERSAL_TIME_OFFSET ( 1, 0, .AHEAD. ) ;
#161 = CONICAL_SURFACE ( 'NONE', #193, 1.499999999999995559, 1.221730476396026388 ) ;
#162 = PRODUCT ( '962920', '962920', '', ( #106 ) ) ;
#163 = LOCAL_TIME ( 11, 23, 3.000000000000000000, #209 ) ;
#164 = ORIENTED_EDGE ( 'NONE', *, *, #169, .F. ) ;
#165 = DIRECTION ( 'NONE',  ( -3.491481338843133355E-15, 1.229791517316362731E-16, -1.000000000000000000 ) ) ;
#166 = VERTEX_POINT ( 'NONE', #85 ) ;
#167 = DIRECTION ( 'NONE',  ( 4.275831445896958607E-31, 1.000000000000000000, 1.224646799147353207E-16 ) ) ;
#168 = CARTESIAN_POINT ( 'NONE',  ( 3.491481338843133355E-14, 0.6499999999999938050, 10.00000000000000000 ) ) ;
#169 = EDGE_CURVE ( 'NONE', #72, #72, #33, .T. ) ;
#170 = CARTESIAN_POINT ( 'NONE',  ( 3.491481338843133355E-14, -1.229791517316362583E-15, 10.00000000000000000 ) ) ;
#171 = CC_DESIGN_APPROVAL ( #9, ( #111 ) ) ;
#172 = PERSON_AND_ORGANIZATION ( #7, #159 ) ;
#173 = CC_DESIGN_PERSON_AND_ORGANIZATION_ASSIGNMENT ( #22, #157, ( #162 ) ) ;
#174 = PERSON_AND_ORGANIZATION_ROLE ( 'creator' ) ;
#175 = APPROVAL_DATE_TIME ( #75, #26 ) ;
#176 = APPROVAL_PERSON_ORGANIZATION ( #42, #9, #28 ) ;
#177 = CIRCLE ( 'NONE', #68, 1.199999999999999956 ) ;
#178 = APPROVAL_DATE_TIME ( #218, #9 ) ;
#179 = LOCAL_TIME ( 11, 23, 3.000000000000000000, #10 ) ;
#180 = CARTESIAN_POINT ( 'NONE',  ( 1.326762908760390423E-13, -4.653657836759941941E-15, 38.00000000000000000 ) ) ;
#181 = LOCAL_TIME ( 11, 23, 3.000000000000000000, #40 ) ;
#182 = MANIFOLD_SOLID_BREP ( 'Corps-Déplacer/Copier1[2]', #62 ) ;
#183 = EDGE_LOOP ( 'NONE', ( #217 ) ) ;
#184 = FACE_OUTER_BOUND ( 'NONE', #196, .T. ) ;
#185 = PLANE ( 'NONE',  #118 ) ;
#186 = DIRECTION ( 'NONE',  ( 4.293794133377662246E-31, 1.000000000000000000, 1.229791517316362484E-16 ) ) ;
#187 = CARTESIAN_POINT ( 'NONE',  ( 0.0000000000000000000, 0.0000000000000000000, 0.0000000000000000000 ) ) ;
#188 = FACE_OUTER_BOUND ( 'NONE', #145, .T. ) ;
#189 = APPROVAL_PERSON_ORGANIZATION ( #172, #26, #4 ) ;
#190 = DIRECTION ( 'NONE',  ( 0.0000000000000000000, 0.0000000000000000000, 1.000000000000000000 ) ) ;
#191 = UNCERTAINTY_MEASURE_WITH_UNIT (LENGTH_MEASURE( 1.000000000000000082E-05 ), #206, 'distance_accuracy_value', 'NONE');
#192 = DATE_TIME_ROLE ( 'classification_date' ) ;
#193 = AXIS2_PLACEMENT_3D ( 'NONE', #152, #69, #83 ) ;
#194 = APPROVAL_STATUS ( 'not_yet_approved' ) ;
#195 = ADVANCED_FACE ( 'NONE', ( #1, #47 ), #144, .T. ) ;
#196 = EDGE_LOOP ( 'NONE', ( #27 ) ) ;
#197 = AXIS2_PLACEMENT_3D ( 'NONE', #17, #70, #148 ) ;
#198 = ORIENTED_EDGE ( 'NONE', *, *, #13, .F. ) ;
#199 = FACE_OUTER_BOUND ( 'NONE', #14, .T. ) ;
#200 = DIRECTION ( 'NONE',  ( -4.275831445896958607E-31, -1.000000000000000000, -1.224646799147353207E-16 ) ) ;
#201 = FACE_BOUND ( 'NONE', #141, .T. ) ;
#202 = CARTESIAN_POINT ( 'NONE',  ( 4.599064127613636081E-14, -1.619911293470423644E-15, 13.17224318643355119 ) ) ;
#203 = PRODUCT_RELATED_PRODUCT_CATEGORY ( 'detail', '', ( #162 ) ) ;
#204 = DIRECTION ( 'NONE',  ( 0.0000000000000000000, 1.000000000000000000, 0.0000000000000000000 ) ) ;
#205 = FACE_OUTER_BOUND ( 'NONE', #60, .T. ) ;
#206 =( LENGTH_UNIT ( ) NAMED_UNIT ( * ) SI_UNIT ( .MILLI., .METRE. ) );
#207 = CARTESIAN_POINT ( 'NONE',  ( 1.316288464743861212E-13, 1.499999999999995337, 37.69999999999999574 ) ) ;
#208 = CC_DESIGN_APPROVAL ( #52, ( #6 ) ) ;
#209 = COORDINATED_UNIVERSAL_TIME_OFFSET ( 1, 0, .AHEAD. ) ;
#210 = APPROVAL_STATUS ( 'not_yet_approved' ) ;
#211 = PRODUCT_DEFINITION ( 'UNKNOWN', '', #6, #123 ) ;
#212 = AXIS2_PLACEMENT_3D ( 'NONE', #43, #117, #133 ) ;
#213 = APPLICATION_CONTEXT ( 'configuration controlled 3d designs of mechanical parts and assemblies' ) ;
#214 = EDGE_LOOP ( 'NONE', ( #61 ) ) ;
#215 = EDGE_LOOP ( 'NONE', ( #12 ) ) ;
#216 = ADVANCED_FACE ( 'NONE', ( #119 ), #103, .F. ) ;
#217 = ORIENTED_EDGE ( 'NONE', *, *, #149, .F. ) ;
#218 = DATE_AND_TIME ( #93, #108 ) ;
#219 = DIRECTION ( 'NONE',  ( 0.0000000000000000000, 1.000000000000000000, 0.0000000000000000000 ) ) ;
#220 = LOCAL_TIME ( 11, 23, 3.000000000000000000, #122 ) ;
#221 = FACE_OUTER_BOUND ( 'NONE', #183, .T. ) ;
#222 = CARTESIAN_POINT ( 'NONE',  ( 8.260169325426298657E-16, -0.6499999999999950262, 0.2365806522730326544 ) ) ;
#223 = ADVANCED_FACE ( 'NONE', ( #130, #134 ), #115, .T. ) ;
ENDSEC;
END-ISO-10303-21;
