ISO-10303-21;
HEADER;
FILE_DESCRIPTION (( 'STEP AP203' ),
    '1' );
FILE_NAME ('962919.step',
    '2021-10-28T09:23:02',
    ( '' ),
    ( '' ),
    'SwSTEP 2.0',
    'SolidWorks 2019',
    '' );
FILE_SCHEMA (( 'CONFIG_CONTROL_DESIGN' ));
ENDSEC;

DATA;
#1 = SHAPE_DEFINITION_REPRESENTATION ( #117, #124 ) ;
#2 = ORIENTED_EDGE ( 'NONE', *, *, #210, .F. ) ;
#3 = CIRCLE ( 'NONE', #171, 1.499999999999998446 ) ;
#4 = DIRECTION ( 'NONE',  ( -4.478906847412176586E-31, -1.000000000000000000, -1.260700200564540091E-16 ) ) ;
#5 = FACE_OUTER_BOUND ( 'NONE', #212, .T. ) ;
#6 = ADVANCED_FACE ( 'NONE', ( #90 ), #40, .T. ) ;
#7 = APPLICATION_CONTEXT ( 'configuration controlled 3d designs of mechanical parts and assemblies' ) ;
#8 = DIRECTION ( 'NONE',  ( -3.491481338843133355E-15, 1.224646799147353207E-16, -1.000000000000000000 ) ) ;
#9 = APPROVAL ( #84, 'UNSPECIFIED' ) ;
#10 = FACE_OUTER_BOUND ( 'NONE', #20, .T. ) ;
#11 = CLOSED_SHELL ( 'NONE', ( #190, #88, #43, #180, #60 ) ) ;
#12 = DIRECTION ( 'NONE',  ( 4.293794133377662246E-31, 1.000000000000000000, 1.229791517316362977E-16 ) ) ;
#13 = CC_DESIGN_APPROVAL ( #26, ( #82 ) ) ;
#14 = PERSON_AND_ORGANIZATION_ROLE ( 'design_owner' ) ;
#15 = APPROVAL_STATUS ( 'not_yet_approved' ) ;
#16 = DATE_TIME_ROLE ( 'creation_date' ) ;
#17 = SECURITY_CLASSIFICATION_LEVEL ( 'unclassified' ) ;
#18 = EDGE_LOOP ( 'NONE', ( #66 ) ) ;
#19 = CC_DESIGN_APPROVAL ( #9, ( #73 ) ) ;
#20 = EDGE_LOOP ( 'NONE', ( #191 ) ) ;
#21 = ORIENTED_EDGE ( 'NONE', *, *, #39, .F. ) ;
#22 = DIRECTION ( 'NONE',  ( -5.135813185032644414E-31, -1.000000000000000000, -1.445602896647343601E-16 ) ) ;
#23 = CYLINDRICAL_SURFACE ( 'NONE', #152, 0.6450000000000000178 ) ;
#24 = EDGE_CURVE ( 'NONE', #164, #164, #140, .T. ) ;
#25 = VERTEX_POINT ( 'NONE', #134 ) ;
#26 = APPROVAL ( #220, 'UNSPECIFIED' ) ;
#27 = CARTESIAN_POINT ( 'NONE',  ( 1.326762908760390423E-13, -4.653657836759941941E-15, 38.00000000000000000 ) ) ;
#28 = APPROVAL_PERSON_ORGANIZATION ( #62, #26, #52 ) ;
#29 = CARTESIAN_POINT ( 'NONE',  ( 0.0000000000000000000, 0.0000000000000000000, 0.0000000000000000000 ) ) ;
#30 = DIRECTION ( 'NONE',  ( -3.491481338843133355E-15, 1.229791517316362731E-16, -1.000000000000000000 ) ) ;
#31 = PERSON_AND_ORGANIZATION_ROLE ( 'design_supplier' ) ;
#32 = PERSON_AND_ORGANIZATION ( #94, #36 ) ;
#33 = CC_DESIGN_DATE_AND_TIME_ASSIGNMENT ( #102, #205, ( #73 ) ) ;
#34 = APPROVAL_DATE_TIME ( #184, #26 ) ;
#35 = CARTESIAN_POINT ( 'NONE',  ( 3.491481338843133355E-14, 0.6449999999999989075, 10.00000000000000000 ) ) ;
#36 = ORGANIZATION ( 'UNSPECIFIED', 'UNSPECIFIED', '' ) ;
#37 = EDGE_LOOP ( 'NONE', ( #21 ) ) ;
#38 = ORIENTED_EDGE ( 'NONE', *, *, #86, .F. ) ;
#39 = EDGE_CURVE ( 'NONE', #25, #25, #146, .T. ) ;
#40 = CONICAL_SURFACE ( 'NONE', #193, 1.499999999999995559, 1.221730476396026388 ) ;
#41 = EDGE_LOOP ( 'NONE', ( #72 ) ) ;
#42 = CARTESIAN_POINT ( 'NONE',  ( 3.491481338843133355E-14, 1.124819836996388827E-32, 10.00000000000000000 ) ) ;
#43 = ADVANCED_FACE ( 'NONE', ( #195 ), #217, .F. ) ;
#44 = FACE_OUTER_BOUND ( 'NONE', #143, .T. ) ;
#45 = CARTESIAN_POINT ( 'NONE',  ( 3.491481338843133355E-14, 1.124819836996388827E-32, 10.00000000000000000 ) ) ;
#46 = DIRECTION ( 'NONE',  ( 0.0000000000000000000, 1.000000000000000000, 0.0000000000000000000 ) ) ;
#47 = DIRECTION ( 'NONE',  ( -3.491481338843133355E-15, 1.224646799147353207E-16, -1.000000000000000000 ) ) ;
#48 = APPLICATION_PROTOCOL_DEFINITION ( 'international standard', 'config_control_design', 1994, #7 ) ;
#49 = AXIS2_PLACEMENT_3D ( 'NONE', #215, #47, #130 ) ;
#50 = DIRECTION ( 'NONE',  ( 1.000000000000000000, 0.0000000000000000000, 0.0000000000000000000 ) ) ;
#51 = PERSON_AND_ORGANIZATION ( #94, #36 ) ;
#52 = APPROVAL_ROLE ( '' ) ;
#53 = CARTESIAN_POINT ( 'NONE',  ( 4.605579320488749335E-14, -1.622206115683092501E-15, 13.19090344047137719 ) ) ;
#54 = DIRECTION ( 'NONE',  ( -3.491481338843133355E-15, 1.229791517316362731E-16, -1.000000000000000000 ) ) ;
#55 = FACE_OUTER_BOUND ( 'NONE', #87, .T. ) ;
#56 = CARTESIAN_POINT ( 'NONE',  ( 4.605579320488749335E-14, 1.499999999999996891, 13.19090344047137719 ) ) ;
#57 = DIRECTION ( 'NONE',  ( 0.0000000000000000000, 1.000000000000000000, 0.0000000000000000000 ) ) ;
#58 = CIRCLE ( 'NONE', #188, 0.6450000000000000178 ) ;
#59 = PERSON_AND_ORGANIZATION ( #94, #36 ) ;
#60 = ADVANCED_FACE ( 'NONE', ( #55 ), #194, .F. ) ;
#61 = CC_DESIGN_DATE_AND_TIME_ASSIGNMENT ( #203, #16, ( #69 ) ) ;
#62 = PERSON_AND_ORGANIZATION ( #94, #36 ) ;
#63 = APPROVAL_ROLE ( '' ) ;
#64 = PERSON_AND_ORGANIZATION_ROLE ( 'creator' ) ;
#65 = AXIS2_PLACEMENT_3D ( 'NONE', #45, #98, #147 ) ;
#66 = ORIENTED_EDGE ( 'NONE', *, *, #86, .T. ) ;
#67 = ORIENTED_EDGE ( 'NONE', *, *, #210, .T. ) ;
#68 = CIRCLE ( 'NONE', #70, 0.6450000000000000178 ) ;
#69 = PRODUCT_DEFINITION ( 'UNKNOWN', '', #82, #218 ) ;
#70 = AXIS2_PLACEMENT_3D ( 'NONE', #95, #8, #4 ) ;
#71 = CONICAL_SURFACE ( 'NONE', #199, 1.499999999999998446, 0.2617993877991500740 ) ;
#72 = ORIENTED_EDGE ( 'NONE', *, *, #39, .T. ) ;
#73 = SECURITY_CLASSIFICATION ( '', '', #17 ) ;
#74 = DIRECTION ( 'NONE',  ( -3.491481338843133355E-15, 1.224646799147353207E-16, -1.000000000000000000 ) ) ;
#75 = CARTESIAN_POINT ( 'NONE',  ( 1.326762908760390423E-13, 8.998558695971077224E-33, 38.00000000000000000 ) ) ;
#76 = CARTESIAN_POINT ( 'NONE',  ( 3.491481338843133355E-14, 0.6449999999999989075, 10.00000000000000000 ) ) ;
#77 = ADVANCED_FACE ( 'NONE', ( #44, #214 ), #23, .T. ) ;
#78 = DIRECTION ( 'NONE',  ( 4.275831445896958607E-31, 1.000000000000000000, 1.224646799147353207E-16 ) ) ;
#79 = FACE_BOUND ( 'NONE', #126, .T. ) ;
#80 = AXIS2_PLACEMENT_3D ( 'NONE', #27, #74, #174 ) ;
#81 =( GEOMETRIC_REPRESENTATION_CONTEXT ( 3 ) GLOBAL_UNCERTAINTY_ASSIGNED_CONTEXT ( ( #172 ) ) GLOBAL_UNIT_ASSIGNED_CONTEXT ( ( #138, #104, #118 ) ) REPRESENTATION_CONTEXT ( 'NONE', 'WORKASPACE' ) );
#82 = PRODUCT_DEFINITION_FORMATION_WITH_SPECIFIED_SOURCE ( 'ANY', '', #198, .NOT_KNOWN. ) ;
#83 = CALENDAR_DATE ( 2021, 28, 10 ) ;
#84 = APPROVAL_STATUS ( 'not_yet_approved' ) ;
#85 = PERSON_AND_ORGANIZATION ( #94, #36 ) ;
#86 = EDGE_CURVE ( 'NONE', #201, #201, #68, .T. ) ;
#87 = EDGE_LOOP ( 'NONE', ( #158 ) ) ;
#88 = ADVANCED_FACE ( 'NONE', ( #167, #79 ), #142, .T. ) ;
#89 = CC_DESIGN_PERSON_AND_ORGANIZATION_ASSIGNMENT ( #32, #31, ( #82 ) ) ;
#90 = FACE_OUTER_BOUND ( 'NONE', #18, .T. ) ;
#91 = MANIFOLD_SOLID_BREP ( 'Corps-Déplacer/Copier1[2]', #159 ) ;
#92 = EDGE_LOOP ( 'NONE', ( #38 ) ) ;
#93 = CARTESIAN_POINT ( 'NONE',  ( 3.491481338843133355E-14, -1.229791517316362583E-15, 10.00000000000000000 ) ) ;
#94 = PERSON ( 'UNSPECIFIED', 'UNSPECIFIED', 'UNSPECIFIED', ('UNSPECIFIED'), ('UNSPECIFIED'), ('UNSPECIFIED') ) ;
#95 = CARTESIAN_POINT ( 'NONE',  ( 8.196629561384625141E-16, -2.874990636344696526E-17, 0.2347608011017035534 ) ) ;
#96 = VERTEX_POINT ( 'NONE', #56 ) ;
#97 = DIRECTION ( 'NONE',  ( 0.0000000000000000000, 1.000000000000000000, 0.0000000000000000000 ) ) ;
#98 = DIRECTION ( 'NONE',  ( 3.491481338843133355E-15, -1.224646799147353207E-16, 1.000000000000000000 ) ) ;
#99 = DIRECTION ( 'NONE',  ( -3.491481338843133355E-15, 1.229791517316362731E-16, -1.000000000000000000 ) ) ;
#100 = PERSON_AND_ORGANIZATION ( #94, #36 ) ;
#101 = PERSON_AND_ORGANIZATION_ROLE ( 'classification_officer' ) ;
#102 = DATE_AND_TIME ( #156, #178 ) ;
#103 = AXIS2_PLACEMENT_3D ( 'NONE', #29, #213, #78 ) ;
#104 =( NAMED_UNIT ( * ) PLANE_ANGLE_UNIT ( ) SI_UNIT ( $, .RADIAN. ) );
#105 = DATE_AND_TIME ( #127, #209 ) ;
#106 = CC_DESIGN_PERSON_AND_ORGANIZATION_ASSIGNMENT ( #51, #64, ( #69 ) ) ;
#107 = ORIENTED_EDGE ( 'NONE', *, *, #206, .F. ) ;
#108 = COORDINATED_UNIVERSAL_TIME_OFFSET ( 1, 0, .AHEAD. ) ;
#109 = EDGE_LOOP ( 'NONE', ( #128 ) ) ;
#110 = DIRECTION ( 'NONE',  ( 3.491481338843133355E-15, -1.224646799147353207E-16, 1.000000000000000000 ) ) ;
#111 = FACE_BOUND ( 'NONE', #223, .T. ) ;
#112 = DIRECTION ( 'NONE',  ( -4.275831445896958607E-31, -1.000000000000000000, -1.224646799147353207E-16 ) ) ;
#113 = FACE_OUTER_BOUND ( 'NONE', #41, .T. ) ;
#114 = DIRECTION ( 'NONE',  ( 4.275831445896958607E-31, 1.000000000000000000, 1.224646799147353207E-16 ) ) ;
#115 = CIRCLE ( 'NONE', #80, 1.199999999999999956 ) ;
#116 = VERTEX_POINT ( 'NONE', #163 ) ;
#117 = PRODUCT_DEFINITION_SHAPE ( 'NONE', 'NONE',  #69 ) ;
#118 =( NAMED_UNIT ( * ) SI_UNIT ( $, .STERADIAN. ) SOLID_ANGLE_UNIT ( ) );
#119 = COORDINATED_UNIVERSAL_TIME_OFFSET ( 1, 0, .AHEAD. ) ;
#120 = CALENDAR_DATE ( 2021, 28, 10 ) ;
#121 = ADVANCED_FACE ( 'NONE', ( #10 ), #181, .T. ) ;
#122 = COORDINATED_UNIVERSAL_TIME_OFFSET ( 1, 0, .AHEAD. ) ;
#123 = PERSON_AND_ORGANIZATION_ROLE ( 'creator' ) ;
#124 = ADVANCED_BREP_SHAPE_REPRESENTATION ( '962919', ( #165, #91, #135 ), #81 ) ;
#125 = LOCAL_TIME ( 11, 23, 2.000000000000000000, #119 ) ;
#126 = EDGE_LOOP ( 'NONE', ( #67 ) ) ;
#127 = CALENDAR_DATE ( 2021, 28, 10 ) ;
#128 = ORIENTED_EDGE ( 'NONE', *, *, #206, .T. ) ;
#129 = AXIS2_PLACEMENT_3D ( 'NONE', #93, #99, #57 ) ;
#130 = DIRECTION ( 'NONE',  ( 0.0000000000000000000, 1.000000000000000000, 0.0000000000000000000 ) ) ;
#131 = DIRECTION ( 'NONE',  ( 0.0000000000000000000, -1.000000000000000000, 0.0000000000000000000 ) ) ;
#132 = DIRECTION ( 'NONE',  ( 3.491481338843133355E-15, -1.224646799147353207E-16, 1.000000000000000000 ) ) ;
#133 = DIRECTION ( 'NONE',  ( -3.491481338843133355E-15, 1.224646799147353207E-16, -1.000000000000000000 ) ) ;
#134 = CARTESIAN_POINT ( 'NONE',  ( 1.316288464743861212E-13, 1.499999999999995337, 37.69999999999999574 ) ) ;
#135 = AXIS2_PLACEMENT_3D ( 'NONE', #136, #168, #50 ) ;
#136 = CARTESIAN_POINT ( 'NONE',  ( 0.0000000000000000000, 0.0000000000000000000, 0.0000000000000000000 ) ) ;
#137 = APPROVAL_DATE_TIME ( #221, #183 ) ;
#138 =( LENGTH_UNIT ( ) NAMED_UNIT ( * ) SI_UNIT ( .MILLI., .METRE. ) );
#139 = PERSON_AND_ORGANIZATION ( #94, #36 ) ;
#140 = CIRCLE ( 'NONE', #129, 0.6450000000000000178 ) ;
#141 = VERTEX_POINT ( 'NONE', #35 ) ;
#142 = CONICAL_SURFACE ( 'NONE', #177, 1.199999999999999956, 0.7853981633974453924 ) ;
#143 = EDGE_LOOP ( 'NONE', ( #189 ) ) ;
#144 = ORIENTED_EDGE ( 'NONE', *, *, #24, .F. ) ;
#145 = AXIS2_PLACEMENT_3D ( 'NONE', #75, #133, #114 ) ;
#146 = CIRCLE ( 'NONE', #49, 1.499999999999999778 ) ;
#147 = DIRECTION ( 'NONE',  ( -4.275831445896958607E-31, -1.000000000000000000, -1.224646799147353207E-16 ) ) ;
#148 = CC_DESIGN_SECURITY_CLASSIFICATION ( #73, ( #82 ) ) ;
#149 = DIRECTION ( 'NONE',  ( -3.491481338843133355E-15, 1.224646799147353207E-16, -1.000000000000000000 ) ) ;
#150 = CARTESIAN_POINT ( 'NONE',  ( 8.196629561384622183E-16, -0.6450000000000000178, 0.2347608011017034702 ) ) ;
#151 = CARTESIAN_POINT ( 'NONE',  ( 4.605579320488749335E-14, -1.622206115683092501E-15, 13.19090344047137719 ) ) ;
#152 = AXIS2_PLACEMENT_3D ( 'NONE', #197, #54, #12 ) ;
#153 = COORDINATED_UNIVERSAL_TIME_OFFSET ( 1, 0, .AHEAD. ) ;
#154 = CC_DESIGN_PERSON_AND_ORGANIZATION_ASSIGNMENT ( #85, #101, ( #73 ) ) ;
#155 = APPROVAL_ROLE ( '' ) ;
#156 = CALENDAR_DATE ( 2021, 28, 10 ) ;
#157 = EDGE_LOOP ( 'NONE', ( #2 ) ) ;
#158 = ORIENTED_EDGE ( 'NONE', *, *, #24, .T. ) ;
#159 = CLOSED_SHELL ( 'NONE', ( #121, #77, #6 ) ) ;
#160 = CARTESIAN_POINT ( 'NONE',  ( 1.906192921252232855E-15, -6.686024735685322183E-17, 0.5459553513993090634 ) ) ;
#161 = APPLICATION_CONTEXT ( 'configuration controlled 3d designs of mechanical parts and assemblies' ) ;
#162 = CARTESIAN_POINT ( 'NONE',  ( 3.491481338843133355E-14, -1.229791517316362583E-15, 10.00000000000000000 ) ) ;
#163 = CARTESIAN_POINT ( 'NONE',  ( 1.326762908760390423E-13, 1.199999999999995293, 38.00000000000000000 ) ) ;
#164 = VERTEX_POINT ( 'NONE', #76 ) ;
#165 = MANIFOLD_SOLID_BREP ( 'Corps-Déplacer/Copier1[1]', #11 ) ;
#166 = CARTESIAN_POINT ( 'NONE',  ( 1.326762908760390423E-13, -4.653657836759941941E-15, 38.00000000000000000 ) ) ;
#167 = FACE_OUTER_BOUND ( 'NONE', #37, .T. ) ;
#168 = DIRECTION ( 'NONE',  ( 0.0000000000000000000, 0.0000000000000000000, 1.000000000000000000 ) ) ;
#169 = CC_DESIGN_PERSON_AND_ORGANIZATION_ASSIGNMENT ( #139, #123, ( #82 ) ) ;
#170 = PERSON_AND_ORGANIZATION ( #94, #36 ) ;
#171 = AXIS2_PLACEMENT_3D ( 'NONE', #151, #30, #219 ) ;
#172 = UNCERTAINTY_MEASURE_WITH_UNIT (LENGTH_MEASURE( 1.000000000000000082E-05 ), #138, 'distance_accuracy_value', 'NONE');
#173 = LOCAL_TIME ( 11, 23, 2.000000000000000000, #122 ) ;
#174 = DIRECTION ( 'NONE',  ( 0.0000000000000000000, 1.000000000000000000, 0.0000000000000000000 ) ) ;
#175 = DIRECTION ( 'NONE',  ( -3.491481338843133355E-15, 1.229791517316362731E-16, -1.000000000000000000 ) ) ;
#176 = FACE_OUTER_BOUND ( 'NONE', #109, .T. ) ;
#177 = AXIS2_PLACEMENT_3D ( 'NONE', #166, #149, #46 ) ;
#178 = LOCAL_TIME ( 11, 23, 2.000000000000000000, #186 ) ;
#179 = CYLINDRICAL_SURFACE ( 'NONE', #103, 1.499999999999998224 ) ;
#180 = ADVANCED_FACE ( 'NONE', ( #111, #176 ), #71, .T. ) ;
#181 = PLANE ( 'NONE',  #207 ) ;
#182 = MECHANICAL_CONTEXT ( 'NONE', #7, 'mechanical' ) ;
#183 = APPROVAL ( #15, 'UNSPECIFIED' ) ;
#184 = DATE_AND_TIME ( #120, #125 ) ;
#185 = APPROVAL_PERSON_ORGANIZATION ( #59, #183, #63 ) ;
#186 = COORDINATED_UNIVERSAL_TIME_OFFSET ( 1, 0, .AHEAD. ) ;
#187 = CALENDAR_DATE ( 2021, 28, 10 ) ;
#188 = AXIS2_PLACEMENT_3D ( 'NONE', #162, #175, #97 ) ;
#189 = ORIENTED_EDGE ( 'NONE', *, *, #216, .T. ) ;
#190 = ADVANCED_FACE ( 'NONE', ( #5, #113 ), #179, .T. ) ;
#191 = ORIENTED_EDGE ( 'NONE', *, *, #216, .F. ) ;
#192 = LOCAL_TIME ( 11, 23, 2.000000000000000000, #153 ) ;
#193 = AXIS2_PLACEMENT_3D ( 'NONE', #160, #110, #22 ) ;
#194 = PLANE ( 'NONE',  #65 ) ;
#195 = FACE_OUTER_BOUND ( 'NONE', #157, .T. ) ;
#196 = DIRECTION ( 'NONE',  ( 3.491481338843133355E-15, -1.229791517316362731E-16, 1.000000000000000000 ) ) ;
#197 = CARTESIAN_POINT ( 'NONE',  ( 0.0000000000000000000, 0.0000000000000000000, 0.0000000000000000000 ) ) ;
#198 = PRODUCT ( '962919', '962919', '', ( #182 ) ) ;
#199 = AXIS2_PLACEMENT_3D ( 'NONE', #53, #196, #131 ) ;
#200 = CC_DESIGN_APPROVAL ( #183, ( #69 ) ) ;
#201 = VERTEX_POINT ( 'NONE', #150 ) ;
#202 = PRODUCT_RELATED_PRODUCT_CATEGORY ( 'detail', '', ( #198 ) ) ;
#203 = DATE_AND_TIME ( #83, #192 ) ;
#204 = APPLICATION_PROTOCOL_DEFINITION ( 'international standard', 'config_control_design', 1994, #161 ) ;
#205 = DATE_TIME_ROLE ( 'classification_date' ) ;
#206 = EDGE_CURVE ( 'NONE', #96, #96, #3, .T. ) ;
#207 = AXIS2_PLACEMENT_3D ( 'NONE', #42, #132, #112 ) ;
#208 = APPROVAL_PERSON_ORGANIZATION ( #170, #9, #155 ) ;
#209 = LOCAL_TIME ( 11, 23, 2.000000000000000000, #108 ) ;
#210 = EDGE_CURVE ( 'NONE', #116, #116, #115, .T. ) ;
#211 = APPROVAL_DATE_TIME ( #105, #9 ) ;
#212 = EDGE_LOOP ( 'NONE', ( #107 ) ) ;
#213 = DIRECTION ( 'NONE',  ( -3.491481338843133355E-15, 1.224646799147353207E-16, -1.000000000000000000 ) ) ;
#214 = FACE_OUTER_BOUND ( 'NONE', #92, .T. ) ;
#215 = CARTESIAN_POINT ( 'NONE',  ( 1.316288464743861212E-13, -4.616918432785521081E-15, 37.69999999999999574 ) ) ;
#216 = EDGE_CURVE ( 'NONE', #141, #141, #58, .T. ) ;
#217 = PLANE ( 'NONE',  #145 ) ;
#218 = DESIGN_CONTEXT ( 'detailed design', #161, 'design' ) ;
#219 = DIRECTION ( 'NONE',  ( 0.0000000000000000000, 1.000000000000000000, 0.0000000000000000000 ) ) ;
#220 = APPROVAL_STATUS ( 'not_yet_approved' ) ;
#221 = DATE_AND_TIME ( #187, #173 ) ;
#222 = CC_DESIGN_PERSON_AND_ORGANIZATION_ASSIGNMENT ( #100, #14, ( #198 ) ) ;
#223 = EDGE_LOOP ( 'NONE', ( #144 ) ) ;
ENDSEC;
END-ISO-10303-21;
