ISO-10303-21;
HEADER;
FILE_DESCRIPTION (( 'STEP AP203' ),
    '1' );
FILE_NAME ('962918.step',
    '2021-10-28T09:23:01',
    ( '' ),
    ( '' ),
    'SwSTEP 2.0',
    'SolidWorks 2019',
    '' );
FILE_SCHEMA (( 'CONFIG_CONTROL_DESIGN' ));
ENDSEC;

DATA;
#1 = APPROVAL_STATUS ( 'not_yet_approved' ) ;
#2 = EDGE_CURVE ( 'NONE', #65, #65, #204, .T. ) ;
#3 = APPROVAL_DATE_TIME ( #157, #9 ) ;
#4 = APPROVAL_ROLE ( '' ) ;
#5 = LOCAL_TIME ( 11, 23, 1.000000000000000000, #17 ) ;
#6 = CC_DESIGN_SECURITY_CLASSIFICATION ( #119, ( #19 ) ) ;
#7 = EDGE_LOOP ( 'NONE', ( #174 ) ) ;
#8 = APPROVAL_PERSON_ORGANIZATION ( #21, #9, #4 ) ;
#9 = APPROVAL ( #1, 'UNSPECIFIED' ) ;
#10 = DIRECTION ( 'NONE',  ( -4.275831445896958607E-31, -1.000000000000000000, -1.224646799147353207E-16 ) ) ;
#11 = AXIS2_PLACEMENT_3D ( 'NONE', #133, #151, #215 ) ;
#12 = FACE_OUTER_BOUND ( 'NONE', #162, .T. ) ;
#13 = CYLINDRICAL_SURFACE ( 'NONE', #126, 1.499999999999998224 ) ;
#14 = FACE_OUTER_BOUND ( 'NONE', #194, .T. ) ;
#15 = CIRCLE ( 'NONE', #143, 0.6399999999999950173 ) ;
#16 = DIRECTION ( 'NONE',  ( -3.491481338843133355E-15, 1.229791517316362731E-16, -1.000000000000000000 ) ) ;
#17 = COORDINATED_UNIVERSAL_TIME_OFFSET ( 1, 0, .AHEAD. ) ;
#18 = DATE_TIME_ROLE ( 'classification_date' ) ;
#19 = PRODUCT_DEFINITION_FORMATION_WITH_SPECIFIED_SOURCE ( 'ANY', '', #97, .NOT_KNOWN. ) ;
#20 = PERSON_AND_ORGANIZATION ( #60, #197 ) ;
#21 = PERSON_AND_ORGANIZATION ( #60, #197 ) ;
#22 = PERSON_AND_ORGANIZATION ( #60, #197 ) ;
#23 = AXIS2_PLACEMENT_3D ( 'NONE', #98, #50, #168 ) ;
#24 = LOCAL_TIME ( 11, 23, 1.000000000000000000, #170 ) ;
#25 = UNCERTAINTY_MEASURE_WITH_UNIT (LENGTH_MEASURE( 1.000000000000000082E-05 ), #187, 'distance_accuracy_value', 'NONE');
#26 = ORIENTED_EDGE ( 'NONE', *, *, #129, .T. ) ;
#27 = DATE_AND_TIME ( #191, #223 ) ;
#28 = ORIENTED_EDGE ( 'NONE', *, *, #118, .T. ) ;
#29 = CLOSED_SHELL ( 'NONE', ( #39, #210, #140 ) ) ;
#30 = DIRECTION ( 'NONE',  ( 3.491481338843133355E-15, -1.224646799147353207E-16, 1.000000000000000000 ) ) ;
#31 = CARTESIAN_POINT ( 'NONE',  ( 4.612094513363876473E-14, -1.624500937895765500E-15, 13.20956369450923873 ) ) ;
#32 = FACE_OUTER_BOUND ( 'NONE', #43, .T. ) ;
#33 = APPLICATION_CONTEXT ( 'configuration controlled 3d designs of mechanical parts and assemblies' ) ;
#34 = CARTESIAN_POINT ( 'NONE',  ( 3.491481338843133355E-14, -1.229791517316362583E-15, 10.00000000000000000 ) ) ;
#35 = DIRECTION ( 'NONE',  ( -3.491481338843133355E-15, 1.224646799147353207E-16, -1.000000000000000000 ) ) ;
#36 = APPROVAL_PERSON_ORGANIZATION ( #56, #186, #142 ) ;
#37 = COORDINATED_UNIVERSAL_TIME_OFFSET ( 1, 0, .AHEAD. ) ;
#38 = CALENDAR_DATE ( 2021, 28, 10 ) ;
#39 = ADVANCED_FACE ( 'NONE', ( #130 ), #196, .T. ) ;
#40 = PERSON_AND_ORGANIZATION ( #60, #197 ) ;
#41 = CARTESIAN_POINT ( 'NONE',  ( 3.491481338843133355E-14, 0.6399999999999939071, 10.00000000000000000 ) ) ;
#42 = COORDINATED_UNIVERSAL_TIME_OFFSET ( 1, 0, .AHEAD. ) ;
#43 = EDGE_LOOP ( 'NONE', ( #108 ) ) ;
#44 = CARTESIAN_POINT ( 'NONE',  ( 3.491481338843133355E-14, 1.124819836996388827E-32, 10.00000000000000000 ) ) ;
#45 = AXIS2_PLACEMENT_3D ( 'NONE', #201, #30, #10 ) ;
#46 = CC_DESIGN_DATE_AND_TIME_ASSIGNMENT ( #208, #206, ( #70 ) ) ;
#47 = DIRECTION ( 'NONE',  ( 0.0000000000000000000, 1.000000000000000000, 0.0000000000000000000 ) ) ;
#48 = DIRECTION ( 'NONE',  ( 0.0000000000000000000, -1.000000000000000000, 0.0000000000000000000 ) ) ;
#49 = AXIS2_PLACEMENT_3D ( 'NONE', #54, #172, #104 ) ;
#50 = DIRECTION ( 'NONE',  ( -3.491481338843133355E-15, 1.224646799147353207E-16, -1.000000000000000000 ) ) ;
#51 = EDGE_CURVE ( 'NONE', #202, #202, #15, .T. ) ;
#52 = CARTESIAN_POINT ( 'NONE',  ( 4.612094513363876473E-14, -1.624500937895765500E-15, 13.20956369450923873 ) ) ;
#53 = VERTEX_POINT ( 'NONE', #41 ) ;
#54 = CARTESIAN_POINT ( 'NONE',  ( 0.0000000000000000000, 0.0000000000000000000, 0.0000000000000000000 ) ) ;
#55 = CIRCLE ( 'NONE', #67, 0.6399999999999950173 ) ;
#56 = PERSON_AND_ORGANIZATION ( #60, #197 ) ;
#57 = MANIFOLD_SOLID_BREP ( 'Corps-Déplacer/Copier1[2]', #29 ) ;
#58 = EDGE_LOOP ( 'NONE', ( #26 ) ) ;
#59 = ADVANCED_FACE ( 'NONE', ( #32 ), #63, .F. ) ;
#60 = PERSON ( 'UNSPECIFIED', 'UNSPECIFIED', 'UNSPECIFIED', ('UNSPECIFIED'), ('UNSPECIFIED'), ('UNSPECIFIED') ) ;
#61 = DIRECTION ( 'NONE',  ( 0.0000000000000000000, 1.000000000000000000, 0.0000000000000000000 ) ) ;
#62 = DIRECTION ( 'NONE',  ( 0.0000000000000000000, 1.000000000000000000, 0.0000000000000000000 ) ) ;
#63 = PLANE ( 'NONE',  #23 ) ;
#64 = DIRECTION ( 'NONE',  ( 3.491481338843133355E-15, -1.224646799147353207E-16, 1.000000000000000000 ) ) ;
#65 = VERTEX_POINT ( 'NONE', #136 ) ;
#66 = VERTEX_POINT ( 'NONE', #137 ) ;
#67 = AXIS2_PLACEMENT_3D ( 'NONE', #167, #16, #198 ) ;
#68 = ORIENTED_EDGE ( 'NONE', *, *, #124, .T. ) ;
#69 = PERSON_AND_ORGANIZATION ( #60, #197 ) ;
#70 = PRODUCT_DEFINITION ( 'UNKNOWN', '', #19, #146 ) ;
#71 = CALENDAR_DATE ( 2021, 28, 10 ) ;
#72 = ADVANCED_BREP_SHAPE_REPRESENTATION ( '962918', ( #134, #57, #49 ), #193 ) ;
#73 = ORIENTED_EDGE ( 'NONE', *, *, #118, .F. ) ;
#74 = DIRECTION ( 'NONE',  ( -4.275831445896958607E-31, -1.000000000000000000, -1.224646799147353207E-16 ) ) ;
#75 = AXIS2_PLACEMENT_3D ( 'NONE', #44, #64, #74 ) ;
#76 = FACE_BOUND ( 'NONE', #195, .T. ) ;
#77 = DIRECTION ( 'NONE',  ( 0.0000000000000000000, 1.000000000000000000, 0.0000000000000000000 ) ) ;
#78 = CARTESIAN_POINT ( 'NONE',  ( 0.0000000000000000000, 0.0000000000000000000, 0.0000000000000000000 ) ) ;
#79 = VERTEX_POINT ( 'NONE', #155 ) ;
#80 = CC_DESIGN_PERSON_AND_ORGANIZATION_ASSIGNMENT ( #69, #86, ( #70 ) ) ;
#81 = PERSON_AND_ORGANIZATION ( #60, #197 ) ;
#82 = AXIS2_PLACEMENT_3D ( 'NONE', #216, #184, #99 ) ;
#83 = COORDINATED_UNIVERSAL_TIME_OFFSET ( 1, 0, .AHEAD. ) ;
#84 = EDGE_LOOP ( 'NONE', ( #91 ) ) ;
#85 = CALENDAR_DATE ( 2021, 28, 10 ) ;
#86 = PERSON_AND_ORGANIZATION_ROLE ( 'creator' ) ;
#87 = CC_DESIGN_APPROVAL ( #186, ( #19 ) ) ;
#88 = ORIENTED_EDGE ( 'NONE', *, *, #144, .T. ) ;
#89 = APPROVAL_DATE_TIME ( #27, #160 ) ;
#90 = CONICAL_SURFACE ( 'NONE', #139, 1.199999999999999956, 0.7853981633974453924 ) ;
#91 = ORIENTED_EDGE ( 'NONE', *, *, #129, .F. ) ;
#92 = FACE_OUTER_BOUND ( 'NONE', #7, .T. ) ;
#93 = DIRECTION ( 'NONE',  ( 4.275831445896958607E-31, 1.000000000000000000, 1.224646799147353207E-16 ) ) ;
#94 = LOCAL_TIME ( 11, 23, 1.000000000000000000, #37 ) ;
#95 = ADVANCED_FACE ( 'NONE', ( #166, #131 ), #13, .T. ) ;
#96 = CARTESIAN_POINT ( 'NONE',  ( 8.133089797342819491E-16, -2.852703887225722706E-17, 0.2329409499303707054 ) ) ;
#97 = PRODUCT ( '962918', '962918', '', ( #120 ) ) ;
#98 = CARTESIAN_POINT ( 'NONE',  ( 1.326762908760390423E-13, 8.998558695971077224E-33, 38.00000000000000000 ) ) ;
#99 = DIRECTION ( 'NONE',  ( -5.135813185032644414E-31, -1.000000000000000000, -1.445602896647343601E-16 ) ) ;
#100 = CIRCLE ( 'NONE', #11, 1.499999999999999778 ) ;
#101 = APPROVAL_DATE_TIME ( #176, #186 ) ;
#102 = PERSON_AND_ORGANIZATION_ROLE ( 'creator' ) ;
#103 = APPROVAL_ROLE ( '' ) ;
#104 = DIRECTION ( 'NONE',  ( 1.000000000000000000, 0.0000000000000000000, 0.0000000000000000000 ) ) ;
#105 = CC_DESIGN_PERSON_AND_ORGANIZATION_ASSIGNMENT ( #20, #102, ( #19 ) ) ;
#106 = PERSON_AND_ORGANIZATION_ROLE ( 'design_supplier' ) ;
#107 = AXIS2_PLACEMENT_3D ( 'NONE', #207, #148, #61 ) ;
#108 = ORIENTED_EDGE ( 'NONE', *, *, #2, .F. ) ;
#109 = EDGE_LOOP ( 'NONE', ( #127 ) ) ;
#110 = CIRCLE ( 'NONE', #123, 0.6399999999999950173 ) ;
#111 = ORIENTED_EDGE ( 'NONE', *, *, #144, .F. ) ;
#112 = ADVANCED_FACE ( 'NONE', ( #12, #116 ), #90, .T. ) ;
#113 = VERTEX_POINT ( 'NONE', #179 ) ;
#114 = DIRECTION ( 'NONE',  ( -3.491481338843133355E-15, 1.229791517316362731E-16, -1.000000000000000000 ) ) ;
#115 = DIRECTION ( 'NONE',  ( -3.491481338843133355E-15, 1.224646799147353207E-16, -1.000000000000000000 ) ) ;
#116 = FACE_BOUND ( 'NONE', #109, .T. ) ;
#117 = CARTESIAN_POINT ( 'NONE',  ( 8.133089797342816533E-16, -0.6399999999999950173, 0.2329409499303706221 ) ) ;
#118 = EDGE_CURVE ( 'NONE', #79, #79, #110, .T. ) ;
#119 = SECURITY_CLASSIFICATION ( '', '', #220 ) ;
#120 = MECHANICAL_CONTEXT ( 'NONE', #33, 'mechanical' ) ;
#121 = CC_DESIGN_DATE_AND_TIME_ASSIGNMENT ( #171, #18, ( #119 ) ) ;
#122 = APPLICATION_PROTOCOL_DEFINITION ( 'international standard', 'config_control_design', 1994, #33 ) ;
#123 = AXIS2_PLACEMENT_3D ( 'NONE', #34, #153, #47 ) ;
#124 = EDGE_CURVE ( 'NONE', #66, #66, #100, .T. ) ;
#125 = EDGE_LOOP ( 'NONE', ( #88 ) ) ;
#126 = AXIS2_PLACEMENT_3D ( 'NONE', #181, #219, #93 ) ;
#127 = ORIENTED_EDGE ( 'NONE', *, *, #2, .T. ) ;
#128 = SHAPE_DEFINITION_REPRESENTATION ( #152, #72 ) ;
#129 = EDGE_CURVE ( 'NONE', #113, #113, #149, .T. ) ;
#130 = FACE_OUTER_BOUND ( 'NONE', #145, .T. ) ;
#131 = FACE_OUTER_BOUND ( 'NONE', #192, .T. ) ;
#132 = CC_DESIGN_PERSON_AND_ORGANIZATION_ASSIGNMENT ( #185, #158, ( #97 ) ) ;
#133 = CARTESIAN_POINT ( 'NONE',  ( 1.316288464743861212E-13, -4.616918432785521081E-15, 37.69999999999999574 ) ) ;
#134 = MANIFOLD_SOLID_BREP ( 'Corps-Déplacer/Copier1[1]', #189 ) ;
#135 = FACE_OUTER_BOUND ( 'NONE', #125, .T. ) ;
#136 = CARTESIAN_POINT ( 'NONE',  ( 1.326762908760390423E-13, 1.199999999999995293, 38.00000000000000000 ) ) ;
#137 = CARTESIAN_POINT ( 'NONE',  ( 1.316288464743861212E-13, 1.499999999999995337, 37.69999999999999574 ) ) ;
#138 = CALENDAR_DATE ( 2021, 28, 10 ) ;
#139 = AXIS2_PLACEMENT_3D ( 'NONE', #163, #35, #77 ) ;
#140 = ADVANCED_FACE ( 'NONE', ( #92 ), #212, .T. ) ;
#141 =( NAMED_UNIT ( * ) PLANE_ANGLE_UNIT ( ) SI_UNIT ( $, .RADIAN. ) );
#142 = APPROVAL_ROLE ( '' ) ;
#143 = AXIS2_PLACEMENT_3D ( 'NONE', #96, #115, #182 ) ;
#144 = EDGE_CURVE ( 'NONE', #53, #53, #55, .T. ) ;
#145 = EDGE_LOOP ( 'NONE', ( #73 ) ) ;
#146 = DESIGN_CONTEXT ( 'detailed design', #214, 'design' ) ;
#147 = EDGE_LOOP ( 'NONE', ( #28 ) ) ;
#148 = DIRECTION ( 'NONE',  ( -3.491481338843133355E-15, 1.224646799147353207E-16, -1.000000000000000000 ) ) ;
#149 = CIRCLE ( 'NONE', #164, 1.499999999999998446 ) ;
#150 = CYLINDRICAL_SURFACE ( 'NONE', #169, 0.6399999999999950173 ) ;
#151 = DIRECTION ( 'NONE',  ( -3.491481338843133355E-15, 1.224646799147353207E-16, -1.000000000000000000 ) ) ;
#152 = PRODUCT_DEFINITION_SHAPE ( 'NONE', 'NONE',  #70 ) ;
#153 = DIRECTION ( 'NONE',  ( -3.491481338843133355E-15, 1.229791517316362731E-16, -1.000000000000000000 ) ) ;
#154 = DIRECTION ( 'NONE',  ( -3.491481338843133355E-15, 1.229791517316362731E-16, -1.000000000000000000 ) ) ;
#155 = CARTESIAN_POINT ( 'NONE',  ( 3.491481338843133355E-14, 0.6399999999999939071, 10.00000000000000000 ) ) ;
#156 = APPROVAL_STATUS ( 'not_yet_approved' ) ;
#157 = DATE_AND_TIME ( #85, #94 ) ;
#158 = PERSON_AND_ORGANIZATION_ROLE ( 'design_owner' ) ;
#159 = PRODUCT_RELATED_PRODUCT_CATEGORY ( 'detail', '', ( #97 ) ) ;
#160 = APPROVAL ( #222, 'UNSPECIFIED' ) ;
#161 = CONICAL_SURFACE ( 'NONE', #209, 1.499999999999998446, 0.2617993877991501295 ) ;
#162 = EDGE_LOOP ( 'NONE', ( #211 ) ) ;
#163 = CARTESIAN_POINT ( 'NONE',  ( 1.326762908760390423E-13, -4.653657836759941941E-15, 38.00000000000000000 ) ) ;
#164 = AXIS2_PLACEMENT_3D ( 'NONE', #52, #114, #62 ) ;
#165 = PLANE ( 'NONE',  #45 ) ;
#166 = FACE_OUTER_BOUND ( 'NONE', #84, .T. ) ;
#167 = CARTESIAN_POINT ( 'NONE',  ( 3.491481338843133355E-14, -1.229791517316362583E-15, 10.00000000000000000 ) ) ;
#168 = DIRECTION ( 'NONE',  ( 4.275831445896958607E-31, 1.000000000000000000, 1.224646799147353207E-16 ) ) ;
#169 = AXIS2_PLACEMENT_3D ( 'NONE', #78, #154, #218 ) ;
#170 = COORDINATED_UNIVERSAL_TIME_OFFSET ( 1, 0, .AHEAD. ) ;
#171 = DATE_AND_TIME ( #138, #24 ) ;
#172 = DIRECTION ( 'NONE',  ( 0.0000000000000000000, 0.0000000000000000000, 1.000000000000000000 ) ) ;
#173 = LOCAL_TIME ( 11, 23, 1.000000000000000000, #42 ) ;
#174 = ORIENTED_EDGE ( 'NONE', *, *, #51, .T. ) ;
#175 = APPLICATION_PROTOCOL_DEFINITION ( 'international standard', 'config_control_design', 1994, #214 ) ;
#176 = DATE_AND_TIME ( #71, #173 ) ;
#177 = CC_DESIGN_PERSON_AND_ORGANIZATION_ASSIGNMENT ( #22, #205, ( #119 ) ) ;
#178 = CC_DESIGN_APPROVAL ( #9, ( #70 ) ) ;
#179 = CARTESIAN_POINT ( 'NONE',  ( 4.612094513363876473E-14, 1.499999999999996891, 13.20956369450923873 ) ) ;
#180 = ADVANCED_FACE ( 'NONE', ( #76, #203 ), #161, .T. ) ;
#181 = CARTESIAN_POINT ( 'NONE',  ( 0.0000000000000000000, 0.0000000000000000000, 0.0000000000000000000 ) ) ;
#182 = DIRECTION ( 'NONE',  ( -4.513898307157619063E-31, -1.000000000000000000, -1.270549420881460369E-16 ) ) ;
#183 = FACE_OUTER_BOUND ( 'NONE', #147, .T. ) ;
#184 = DIRECTION ( 'NONE',  ( 3.491481338843133355E-15, -1.224646799147353207E-16, 1.000000000000000000 ) ) ;
#185 = PERSON_AND_ORGANIZATION ( #60, #197 ) ;
#186 = APPROVAL ( #156, 'UNSPECIFIED' ) ;
#187 =( LENGTH_UNIT ( ) NAMED_UNIT ( * ) SI_UNIT ( .MILLI., .METRE. ) );
#188 =( NAMED_UNIT ( * ) SI_UNIT ( $, .STERADIAN. ) SOLID_ANGLE_UNIT ( ) );
#189 = CLOSED_SHELL ( 'NONE', ( #95, #112, #59, #180, #190 ) ) ;
#190 = ADVANCED_FACE ( 'NONE', ( #135 ), #165, .F. ) ;
#191 = CALENDAR_DATE ( 2021, 28, 10 ) ;
#192 = EDGE_LOOP ( 'NONE', ( #68 ) ) ;
#193 =( GEOMETRIC_REPRESENTATION_CONTEXT ( 3 ) GLOBAL_UNCERTAINTY_ASSIGNED_CONTEXT ( ( #25 ) ) GLOBAL_UNIT_ASSIGNED_CONTEXT ( ( #187, #141, #188 ) ) REPRESENTATION_CONTEXT ( 'NONE', 'WORKASPACE' ) );
#194 = EDGE_LOOP ( 'NONE', ( #213 ) ) ;
#195 = EDGE_LOOP ( 'NONE', ( #111 ) ) ;
#196 = PLANE ( 'NONE',  #75 ) ;
#197 = ORGANIZATION ( 'UNSPECIFIED', 'UNSPECIFIED', '' ) ;
#198 = DIRECTION ( 'NONE',  ( 0.0000000000000000000, 1.000000000000000000, 0.0000000000000000000 ) ) ;
#199 = DIRECTION ( 'NONE',  ( 3.491481338843133355E-15, -1.229791517316362731E-16, 1.000000000000000000 ) ) ;
#200 = CC_DESIGN_PERSON_AND_ORGANIZATION_ASSIGNMENT ( #40, #106, ( #19 ) ) ;
#201 = CARTESIAN_POINT ( 'NONE',  ( 3.491481338843133355E-14, 1.124819836996388827E-32, 10.00000000000000000 ) ) ;
#202 = VERTEX_POINT ( 'NONE', #117 ) ;
#203 = FACE_OUTER_BOUND ( 'NONE', #58, .T. ) ;
#204 = CIRCLE ( 'NONE', #107, 1.199999999999999956 ) ;
#205 = PERSON_AND_ORGANIZATION_ROLE ( 'classification_officer' ) ;
#206 = DATE_TIME_ROLE ( 'creation_date' ) ;
#207 = CARTESIAN_POINT ( 'NONE',  ( 1.326762908760390423E-13, -4.653657836759941941E-15, 38.00000000000000000 ) ) ;
#208 = DATE_AND_TIME ( #38, #5 ) ;
#209 = AXIS2_PLACEMENT_3D ( 'NONE', #31, #199, #48 ) ;
#210 = ADVANCED_FACE ( 'NONE', ( #183, #14 ), #150, .T. ) ;
#211 = ORIENTED_EDGE ( 'NONE', *, *, #124, .F. ) ;
#212 = CONICAL_SURFACE ( 'NONE', #82, 1.499999999999995559, 1.221730476396026388 ) ;
#213 = ORIENTED_EDGE ( 'NONE', *, *, #51, .F. ) ;
#214 = APPLICATION_CONTEXT ( 'configuration controlled 3d designs of mechanical parts and assemblies' ) ;
#215 = DIRECTION ( 'NONE',  ( 0.0000000000000000000, 1.000000000000000000, 0.0000000000000000000 ) ) ;
#216 = CARTESIAN_POINT ( 'NONE',  ( 1.906192921252232855E-15, -6.686024735685322183E-17, 0.5459553513993090634 ) ) ;
#217 = CC_DESIGN_APPROVAL ( #160, ( #119 ) ) ;
#218 = DIRECTION ( 'NONE',  ( 4.293794133377662246E-31, 1.000000000000000000, 1.229791517316362731E-16 ) ) ;
#219 = DIRECTION ( 'NONE',  ( -3.491481338843133355E-15, 1.224646799147353207E-16, -1.000000000000000000 ) ) ;
#220 = SECURITY_CLASSIFICATION_LEVEL ( 'unclassified' ) ;
#221 = APPROVAL_PERSON_ORGANIZATION ( #81, #160, #103 ) ;
#222 = APPROVAL_STATUS ( 'not_yet_approved' ) ;
#223 = LOCAL_TIME ( 11, 23, 1.000000000000000000, #83 ) ;
ENDSEC;
END-ISO-10303-21;
