ISO-10303-21;
HEADER;
FILE_DESCRIPTION (( 'STEP AP203' ),
    '1' );
FILE_NAME ('962917.step',
    '2021-10-28T09:23:01',
    ( '' ),
    ( '' ),
    'SwSTEP 2.0',
    'SolidWorks 2019',
    '' );
FILE_SCHEMA (( 'CONFIG_CONTROL_DESIGN' ));
ENDSEC;

DATA;
#1 = VERTEX_POINT ( 'NONE', #54 ) ;
#2 = APPROVAL_ROLE ( '' ) ;
#3 = ADVANCED_FACE ( 'NONE', ( #27 ), #45, .T. ) ;
#4 = APPLICATION_PROTOCOL_DEFINITION ( 'international standard', 'config_control_design', 1994, #33 ) ;
#5 = PERSON_AND_ORGANIZATION ( #77, #69 ) ;
#6 = DATE_AND_TIME ( #73, #222 ) ;
#7 = CIRCLE ( 'NONE', #150, 1.499999999999999778 ) ;
#8 = DATE_AND_TIME ( #196, #59 ) ;
#9 = DIRECTION ( 'NONE',  ( -4.275831445896958607E-31, -1.000000000000000000, -1.224646799147353207E-16 ) ) ;
#10 = CC_DESIGN_DATE_AND_TIME_ASSIGNMENT ( #198, #17, ( #201 ) ) ;
#11 = FACE_BOUND ( 'NONE', #110, .T. ) ;
#12 = CARTESIAN_POINT ( 'NONE',  ( 1.316288464743861212E-13, -4.616918432785521081E-15, 37.69999999999999574 ) ) ;
#13 = PRODUCT_DEFINITION ( 'UNKNOWN', '', #178, #101 ) ;
#14 = VERTEX_POINT ( 'NONE', #155 ) ;
#15 = DIRECTION ( 'NONE',  ( 0.0000000000000000000, 1.000000000000000000, 0.0000000000000000000 ) ) ;
#16 = DIRECTION ( 'NONE',  ( -3.491481338843133355E-15, 1.229791517316362731E-16, -1.000000000000000000 ) ) ;
#17 = DATE_TIME_ROLE ( 'classification_date' ) ;
#18 = PRODUCT_RELATED_PRODUCT_CATEGORY ( 'detail', '', ( #118 ) ) ;
#19 = COORDINATED_UNIVERSAL_TIME_OFFSET ( 1, 0, .AHEAD. ) ;
#20 = DIRECTION ( 'NONE',  ( 1.000000000000000000, 0.0000000000000000000, 0.0000000000000000000 ) ) ;
#21 = CC_DESIGN_APPROVAL ( #36, ( #13 ) ) ;
#22 =( LENGTH_UNIT ( ) NAMED_UNIT ( * ) SI_UNIT ( .MILLI., .METRE. ) );
#23 = SECURITY_CLASSIFICATION_LEVEL ( 'unclassified' ) ;
#24 = ORIENTED_EDGE ( 'NONE', *, *, #106, .F. ) ;
#25 = EDGE_LOOP ( 'NONE', ( #72 ) ) ;
#26 = DATE_AND_TIME ( #184, #42 ) ;
#27 = FACE_OUTER_BOUND ( 'NONE', #111, .T. ) ;
#28 = AXIS2_PLACEMENT_3D ( 'NONE', #134, #194, #20 ) ;
#29 = CARTESIAN_POINT ( 'NONE',  ( 4.618609706238990989E-14, -1.626795760108434159E-15, 13.22822394854706474 ) ) ;
#30 = CARTESIAN_POINT ( 'NONE',  ( 3.491481338843133355E-14, -1.229791517316362583E-15, 10.00000000000000000 ) ) ;
#31 = FACE_OUTER_BOUND ( 'NONE', #43, .T. ) ;
#32 = CYLINDRICAL_SURFACE ( 'NONE', #46, 1.499999999999998224 ) ;
#33 = APPLICATION_CONTEXT ( 'configuration controlled 3d designs of mechanical parts and assemblies' ) ;
#34 = FACE_OUTER_BOUND ( 'NONE', #173, .T. ) ;
#35 = APPROVAL ( #154, 'UNSPECIFIED' ) ;
#36 = APPROVAL ( #88, 'UNSPECIFIED' ) ;
#37 = AXIS2_PLACEMENT_3D ( 'NONE', #205, #50, #146 ) ;
#38 = MECHANICAL_CONTEXT ( 'NONE', #33, 'mechanical' ) ;
#39 = COORDINATED_UNIVERSAL_TIME_OFFSET ( 1, 0, .AHEAD. ) ;
#40 = AXIS2_PLACEMENT_3D ( 'NONE', #65, #95, #121 ) ;
#41 = PERSON_AND_ORGANIZATION_ROLE ( 'design_owner' ) ;
#42 = LOCAL_TIME ( 11, 23, 1.000000000000000000, #79 ) ;
#43 = EDGE_LOOP ( 'NONE', ( #24 ) ) ;
#44 = PERSON_AND_ORGANIZATION_ROLE ( 'creator' ) ;
#45 = PLANE ( 'NONE',  #96 ) ;
#46 = AXIS2_PLACEMENT_3D ( 'NONE', #51, #131, #78 ) ;
#47 = CC_DESIGN_APPROVAL ( #35, ( #201 ) ) ;
#48 = ORIENTED_EDGE ( 'NONE', *, *, #187, .F. ) ;
#49 = ADVANCED_FACE ( 'NONE', ( #107 ), #68, .T. ) ;
#50 = DIRECTION ( 'NONE',  ( -3.491481338843133355E-15, 1.224646799147353207E-16, -1.000000000000000000 ) ) ;
#51 = CARTESIAN_POINT ( 'NONE',  ( 0.0000000000000000000, 0.0000000000000000000, 0.0000000000000000000 ) ) ;
#52 = FACE_OUTER_BOUND ( 'NONE', #25, .T. ) ;
#53 = ADVANCED_FACE ( 'NONE', ( #11, #52 ), #216, .T. ) ;
#54 = CARTESIAN_POINT ( 'NONE',  ( 4.618609706238990989E-14, 1.499999999999996891, 13.22822394854706474 ) ) ;
#55 = CIRCLE ( 'NONE', #177, 0.6350000000000000089 ) ;
#56 = PERSON_AND_ORGANIZATION_ROLE ( 'classification_officer' ) ;
#57 = APPROVAL_ROLE ( '' ) ;
#58 =( NAMED_UNIT ( * ) PLANE_ANGLE_UNIT ( ) SI_UNIT ( $, .RADIAN. ) );
#59 = LOCAL_TIME ( 11, 23, 1.000000000000000000, #125 ) ;
#60 = PERSON_AND_ORGANIZATION ( #77, #69 ) ;
#61 = ORIENTED_EDGE ( 'NONE', *, *, #217, .F. ) ;
#62 = CIRCLE ( 'NONE', #120, 0.6350000000000000089 ) ;
#63 = FACE_BOUND ( 'NONE', #143, .T. ) ;
#64 = DIRECTION ( 'NONE',  ( -3.491481338843133355E-15, 1.229791517316362731E-16, -1.000000000000000000 ) ) ;
#65 = CARTESIAN_POINT ( 'NONE',  ( 3.491481338843133355E-14, 1.124819836996388827E-32, 10.00000000000000000 ) ) ;
#66 = FACE_OUTER_BOUND ( 'NONE', #139, .T. ) ;
#67 = VERTEX_POINT ( 'NONE', #80 ) ;
#68 = CONICAL_SURFACE ( 'NONE', #104, 1.499999999999995559, 1.221730476396026388 ) ;
#69 = ORGANIZATION ( 'UNSPECIFIED', 'UNSPECIFIED', '' ) ;
#70 = ADVANCED_FACE ( 'NONE', ( #148, #221 ), #219, .T. ) ;
#71 = APPROVAL_ROLE ( '' ) ;
#72 = ORIENTED_EDGE ( 'NONE', *, *, #106, .T. ) ;
#73 = CALENDAR_DATE ( 2021, 28, 10 ) ;
#74 = APPROVAL_PERSON_ORGANIZATION ( #60, #135, #71 ) ;
#75 = EDGE_LOOP ( 'NONE', ( #126 ) ) ;
#76 = ORIENTED_EDGE ( 'NONE', *, *, #187, .T. ) ;
#77 = PERSON ( 'UNSPECIFIED', 'UNSPECIFIED', 'UNSPECIFIED', ('UNSPECIFIED'), ('UNSPECIFIED'), ('UNSPECIFIED') ) ;
#78 = DIRECTION ( 'NONE',  ( 4.275831445896958607E-31, 1.000000000000000000, 1.224646799147353207E-16 ) ) ;
#79 = COORDINATED_UNIVERSAL_TIME_OFFSET ( 1, 0, .AHEAD. ) ;
#80 = CARTESIAN_POINT ( 'NONE',  ( 1.316288464743861212E-13, 1.499999999999995337, 37.69999999999999574 ) ) ;
#81 = DIRECTION ( 'NONE',  ( -5.135813185032644414E-31, -1.000000000000000000, -1.445602896647343601E-16 ) ) ;
#82 = FACE_OUTER_BOUND ( 'NONE', #175, .T. ) ;
#83 = APPLICATION_CONTEXT ( 'configuration controlled 3d designs of mechanical parts and assemblies' ) ;
#84 = DIRECTION ( 'NONE',  ( -3.491481338843133355E-15, 1.229791517316362731E-16, -1.000000000000000000 ) ) ;
#85 = PERSON_AND_ORGANIZATION ( #77, #69 ) ;
#86 = ADVANCED_FACE ( 'NONE', ( #189 ), #149, .F. ) ;
#87 = CC_DESIGN_PERSON_AND_ORGANIZATION_ASSIGNMENT ( #169, #56, ( #201 ) ) ;
#88 = APPROVAL_STATUS ( 'not_yet_approved' ) ;
#89 = CALENDAR_DATE ( 2021, 28, 10 ) ;
#90 = EDGE_LOOP ( 'NONE', ( #124 ) ) ;
#91 = CC_DESIGN_PERSON_AND_ORGANIZATION_ASSIGNMENT ( #137, #41, ( #118 ) ) ;
#92 =( GEOMETRIC_REPRESENTATION_CONTEXT ( 3 ) GLOBAL_UNCERTAINTY_ASSIGNED_CONTEXT ( ( #211 ) ) GLOBAL_UNIT_ASSIGNED_CONTEXT ( ( #22, #58, #105 ) ) REPRESENTATION_CONTEXT ( 'NONE', 'WORKASPACE' ) );
#93 = CARTESIAN_POINT ( 'NONE',  ( 0.0000000000000000000, 0.0000000000000000000, 0.0000000000000000000 ) ) ;
#94 = CARTESIAN_POINT ( 'NONE',  ( 1.326762908760390423E-13, -4.653657836759941941E-15, 38.00000000000000000 ) ) ;
#95 = DIRECTION ( 'NONE',  ( 3.491481338843133355E-15, -1.224646799147353207E-16, 1.000000000000000000 ) ) ;
#96 = AXIS2_PLACEMENT_3D ( 'NONE', #108, #212, #9 ) ;
#97 = CIRCLE ( 'NONE', #200, 1.199999999999999956 ) ;
#98 = DIRECTION ( 'NONE',  ( -3.491481338843133355E-15, 1.224646799147353207E-16, -1.000000000000000000 ) ) ;
#99 = DIRECTION ( 'NONE',  ( 0.0000000000000000000, 1.000000000000000000, 0.0000000000000000000 ) ) ;
#100 = AXIS2_PLACEMENT_3D ( 'NONE', #117, #84, #165 ) ;
#101 = DESIGN_CONTEXT ( 'detailed design', #83, 'design' ) ;
#102 = COORDINATED_UNIVERSAL_TIME_OFFSET ( 1, 0, .AHEAD. ) ;
#103 = CARTESIAN_POINT ( 'NONE',  ( 1.326762908760390423E-13, 1.199999999999995293, 38.00000000000000000 ) ) ;
#104 = AXIS2_PLACEMENT_3D ( 'NONE', #186, #167, #81 ) ;
#105 =( NAMED_UNIT ( * ) SI_UNIT ( $, .STERADIAN. ) SOLID_ANGLE_UNIT ( ) );
#106 = EDGE_CURVE ( 'NONE', #1, #1, #141, .T. ) ;
#107 = FACE_OUTER_BOUND ( 'NONE', #75, .T. ) ;
#108 = CARTESIAN_POINT ( 'NONE',  ( 3.491481338843133355E-14, 1.124819836996388827E-32, 10.00000000000000000 ) ) ;
#109 = APPROVAL_PERSON_ORGANIZATION ( #209, #36, #57 ) ;
#110 = EDGE_LOOP ( 'NONE', ( #179 ) ) ;
#111 = EDGE_LOOP ( 'NONE', ( #48 ) ) ;
#112 = DIRECTION ( 'NONE',  ( -3.491481338843133355E-15, 1.224646799147353207E-16, -1.000000000000000000 ) ) ;
#113 = MANIFOLD_SOLID_BREP ( 'Corps-Déplacer/Copier1[1]', #140 ) ;
#114 = CLOSED_SHELL ( 'NONE', ( #3, #70, #49 ) ) ;
#115 = CIRCLE ( 'NONE', #100, 0.6350000000000000089 ) ;
#116 = VERTEX_POINT ( 'NONE', #163 ) ;
#117 = CARTESIAN_POINT ( 'NONE',  ( 3.491481338843133355E-14, -1.229791517316362583E-15, 10.00000000000000000 ) ) ;
#118 = PRODUCT ( '962917', '962917', '', ( #38 ) ) ;
#119 = DIRECTION ( 'NONE',  ( 0.0000000000000000000, 1.000000000000000000, 0.0000000000000000000 ) ) ;
#120 = AXIS2_PLACEMENT_3D ( 'NONE', #30, #16, #119 ) ;
#121 = DIRECTION ( 'NONE',  ( -4.275831445896958607E-31, -1.000000000000000000, -1.224646799147353207E-16 ) ) ;
#122 = APPROVAL_PERSON_ORGANIZATION ( #85, #35, #2 ) ;
#123 = PERSON_AND_ORGANIZATION_ROLE ( 'design_supplier' ) ;
#124 = ORIENTED_EDGE ( 'NONE', *, *, #176, .F. ) ;
#125 = COORDINATED_UNIVERSAL_TIME_OFFSET ( 1, 0, .AHEAD. ) ;
#126 = ORIENTED_EDGE ( 'NONE', *, *, #176, .T. ) ;
#127 = EDGE_LOOP ( 'NONE', ( #76 ) ) ;
#128 = CC_DESIGN_PERSON_AND_ORGANIZATION_ASSIGNMENT ( #168, #123, ( #178 ) ) ;
#129 = DIRECTION ( 'NONE',  ( 0.0000000000000000000, 1.000000000000000000, 0.0000000000000000000 ) ) ;
#130 = DIRECTION ( 'NONE',  ( 0.0000000000000000000, 1.000000000000000000, 0.0000000000000000000 ) ) ;
#131 = DIRECTION ( 'NONE',  ( -3.491481338843133355E-15, 1.224646799147353207E-16, -1.000000000000000000 ) ) ;
#132 = CARTESIAN_POINT ( 'NONE',  ( 4.618609706238990989E-14, -1.626795760108434159E-15, 13.22822394854706474 ) ) ;
#133 = CARTESIAN_POINT ( 'NONE',  ( 8.069550033301141044E-16, -2.830417138106793877E-17, 0.2311210987590414656 ) ) ;
#134 = CARTESIAN_POINT ( 'NONE',  ( 0.0000000000000000000, 0.0000000000000000000, 0.0000000000000000000 ) ) ;
#135 = APPROVAL ( #138, 'UNSPECIFIED' ) ;
#136 = ADVANCED_BREP_SHAPE_REPRESENTATION ( '962917', ( #113, #190, #28 ), #92 ) ;
#137 = PERSON_AND_ORGANIZATION ( #77, #69 ) ;
#138 = APPROVAL_STATUS ( 'not_yet_approved' ) ;
#139 = EDGE_LOOP ( 'NONE', ( #202 ) ) ;
#140 = CLOSED_SHELL ( 'NONE', ( #147, #191, #161, #53, #86 ) ) ;
#141 = CIRCLE ( 'NONE', #220, 1.499999999999998668 ) ;
#142 = CC_DESIGN_DATE_AND_TIME_ASSIGNMENT ( #6, #213, ( #13 ) ) ;
#143 = EDGE_LOOP ( 'NONE', ( #197 ) ) ;
#144 = EDGE_LOOP ( 'NONE', ( #159 ) ) ;
#145 = LOCAL_TIME ( 11, 23, 1.000000000000000000, #19 ) ;
#146 = DIRECTION ( 'NONE',  ( 4.275831445896958607E-31, 1.000000000000000000, 1.224646799147353207E-16 ) ) ;
#147 = ADVANCED_FACE ( 'NONE', ( #31, #34 ), #32, .T. ) ;
#148 = FACE_OUTER_BOUND ( 'NONE', #127, .T. ) ;
#149 = PLANE ( 'NONE',  #40 ) ;
#150 = AXIS2_PLACEMENT_3D ( 'NONE', #12, #203, #15 ) ;
#151 = PLANE ( 'NONE',  #37 ) ;
#152 = EDGE_CURVE ( 'NONE', #183, #183, #115, .T. ) ;
#153 = DIRECTION ( 'NONE',  ( -3.491481338843133355E-15, 1.229791517316362731E-16, -1.000000000000000000 ) ) ;
#154 = APPROVAL_STATUS ( 'not_yet_approved' ) ;
#155 = CARTESIAN_POINT ( 'NONE',  ( 3.491481338843133355E-14, 0.6349999999999988987, 10.00000000000000000 ) ) ;
#156 = PERSON_AND_ORGANIZATION_ROLE ( 'creator' ) ;
#157 = APPLICATION_PROTOCOL_DEFINITION ( 'international standard', 'config_control_design', 1994, #83 ) ;
#158 = CONICAL_SURFACE ( 'NONE', #192, 1.199999999999999956, 0.7853981633974453924 ) ;
#159 = ORIENTED_EDGE ( 'NONE', *, *, #152, .T. ) ;
#160 = EDGE_CURVE ( 'NONE', #67, #67, #7, .T. ) ;
#161 = ADVANCED_FACE ( 'NONE', ( #82 ), #151, .F. ) ;
#162 = DIRECTION ( 'NONE',  ( 4.293794133377662246E-31, 1.000000000000000000, 1.229791517316362731E-16 ) ) ;
#163 = CARTESIAN_POINT ( 'NONE',  ( 8.069550033301138086E-16, -0.6350000000000000089, 0.2311210987590413823 ) ) ;
#164 = PRODUCT_DEFINITION_SHAPE ( 'NONE', 'NONE',  #13 ) ;
#165 = DIRECTION ( 'NONE',  ( 0.0000000000000000000, 1.000000000000000000, 0.0000000000000000000 ) ) ;
#166 = CC_DESIGN_PERSON_AND_ORGANIZATION_ASSIGNMENT ( #210, #44, ( #178 ) ) ;
#167 = DIRECTION ( 'NONE',  ( 3.491481338843133355E-15, -1.224646799147353207E-16, 1.000000000000000000 ) ) ;
#168 = PERSON_AND_ORGANIZATION ( #77, #69 ) ;
#169 = PERSON_AND_ORGANIZATION ( #77, #69 ) ;
#170 = AXIS2_PLACEMENT_3D ( 'NONE', #132, #188, #185 ) ;
#171 = APPROVAL_DATE_TIME ( #207, #36 ) ;
#172 = CC_DESIGN_SECURITY_CLASSIFICATION ( #201, ( #178 ) ) ;
#173 = EDGE_LOOP ( 'NONE', ( #199 ) ) ;
#174 = APPROVAL_DATE_TIME ( #8, #135 ) ;
#175 = EDGE_LOOP ( 'NONE', ( #61 ) ) ;
#176 = EDGE_CURVE ( 'NONE', #116, #116, #55, .T. ) ;
#177 = AXIS2_PLACEMENT_3D ( 'NONE', #133, #218, #223 ) ;
#178 = PRODUCT_DEFINITION_FORMATION_WITH_SPECIFIED_SOURCE ( 'ANY', '', #118, .NOT_KNOWN. ) ;
#179 = ORIENTED_EDGE ( 'NONE', *, *, #152, .F. ) ;
#180 = APPROVAL_DATE_TIME ( #26, #35 ) ;
#181 = SHAPE_DEFINITION_REPRESENTATION ( #164, #136 ) ;
#182 = AXIS2_PLACEMENT_3D ( 'NONE', #93, #64, #162 ) ;
#183 = VERTEX_POINT ( 'NONE', #204 ) ;
#184 = CALENDAR_DATE ( 2021, 28, 10 ) ;
#185 = DIRECTION ( 'NONE',  ( 0.0000000000000000000, -1.000000000000000000, 0.0000000000000000000 ) ) ;
#186 = CARTESIAN_POINT ( 'NONE',  ( 1.906192921252232855E-15, -6.686024735685322183E-17, 0.5459553513993090634 ) ) ;
#187 = EDGE_CURVE ( 'NONE', #14, #14, #62, .T. ) ;
#188 = DIRECTION ( 'NONE',  ( 3.491481338843133355E-15, -1.229791517316362731E-16, 1.000000000000000000 ) ) ;
#189 = FACE_OUTER_BOUND ( 'NONE', #144, .T. ) ;
#190 = MANIFOLD_SOLID_BREP ( 'Corps-Déplacer/Copier1[2]', #114 ) ;
#191 = ADVANCED_FACE ( 'NONE', ( #66, #63 ), #158, .T. ) ;
#192 = AXIS2_PLACEMENT_3D ( 'NONE', #206, #98, #130 ) ;
#193 = VERTEX_POINT ( 'NONE', #103 ) ;
#194 = DIRECTION ( 'NONE',  ( 0.0000000000000000000, 0.0000000000000000000, 1.000000000000000000 ) ) ;
#195 = CC_DESIGN_APPROVAL ( #135, ( #178 ) ) ;
#196 = CALENDAR_DATE ( 2021, 28, 10 ) ;
#197 = ORIENTED_EDGE ( 'NONE', *, *, #217, .T. ) ;
#198 = DATE_AND_TIME ( #215, #145 ) ;
#199 = ORIENTED_EDGE ( 'NONE', *, *, #160, .T. ) ;
#200 = AXIS2_PLACEMENT_3D ( 'NONE', #94, #112, #129 ) ;
#201 = SECURITY_CLASSIFICATION ( '', '', #23 ) ;
#202 = ORIENTED_EDGE ( 'NONE', *, *, #160, .F. ) ;
#203 = DIRECTION ( 'NONE',  ( -3.491481338843133355E-15, 1.224646799147353207E-16, -1.000000000000000000 ) ) ;
#204 = CARTESIAN_POINT ( 'NONE',  ( 3.491481338843133355E-14, 0.6349999999999988987, 10.00000000000000000 ) ) ;
#205 = CARTESIAN_POINT ( 'NONE',  ( 1.326762908760390423E-13, 8.998558695971077224E-33, 38.00000000000000000 ) ) ;
#206 = CARTESIAN_POINT ( 'NONE',  ( 1.326762908760390423E-13, -4.653657836759941941E-15, 38.00000000000000000 ) ) ;
#207 = DATE_AND_TIME ( #89, #214 ) ;
#208 = CC_DESIGN_PERSON_AND_ORGANIZATION_ASSIGNMENT ( #5, #156, ( #13 ) ) ;
#209 = PERSON_AND_ORGANIZATION ( #77, #69 ) ;
#210 = PERSON_AND_ORGANIZATION ( #77, #69 ) ;
#211 = UNCERTAINTY_MEASURE_WITH_UNIT (LENGTH_MEASURE( 1.000000000000000082E-05 ), #22, 'distance_accuracy_value', 'NONE');
#212 = DIRECTION ( 'NONE',  ( 3.491481338843133355E-15, -1.224646799147353207E-16, 1.000000000000000000 ) ) ;
#213 = DATE_TIME_ROLE ( 'creation_date' ) ;
#214 = LOCAL_TIME ( 11, 23, 1.000000000000000000, #39 ) ;
#215 = CALENDAR_DATE ( 2021, 28, 10 ) ;
#216 = CONICAL_SURFACE ( 'NONE', #170, 1.499999999999998668, 0.2617993877991501850 ) ;
#217 = EDGE_CURVE ( 'NONE', #193, #193, #97, .T. ) ;
#218 = DIRECTION ( 'NONE',  ( -3.491481338843133355E-15, 1.224646799147353207E-16, -1.000000000000000000 ) ) ;
#219 = CYLINDRICAL_SURFACE ( 'NONE', #182, 0.6350000000000000089 ) ;
#220 = AXIS2_PLACEMENT_3D ( 'NONE', #29, #153, #99 ) ;
#221 = FACE_OUTER_BOUND ( 'NONE', #90, .T. ) ;
#222 = LOCAL_TIME ( 11, 23, 1.000000000000000000, #102 ) ;
#223 = DIRECTION ( 'NONE',  ( -4.549440813513155469E-31, -1.000000000000000000, -1.280553747030123322E-16 ) ) ;
ENDSEC;
END-ISO-10303-21;
