ISO-10303-21;
HEADER;
FILE_DESCRIPTION (( 'STEP AP203' ),
    '1' );
FILE_NAME ('962916.step',
    '2021-10-28T09:23:00',
    ( '' ),
    ( '' ),
    'SwSTEP 2.0',
    'SolidWorks 2019',
    '' );
FILE_SCHEMA (( 'CONFIG_CONTROL_DESIGN' ));
ENDSEC;

DATA;
#1 = CALENDAR_DATE ( 2021, 28, 10 ) ;
#2 = PERSON_AND_ORGANIZATION_ROLE ( 'creator' ) ;
#3 = ADVANCED_FACE ( 'NONE', ( #158 ), #211, .T. ) ;
#4 = ORGANIZATION ( 'UNSPECIFIED', 'UNSPECIFIED', '' ) ;
#5 = EDGE_LOOP ( 'NONE', ( #46 ) ) ;
#6 = PRODUCT_DEFINITION_SHAPE ( 'NONE', 'NONE',  #190 ) ;
#7 = APPROVAL ( #188, 'UNSPECIFIED' ) ;
#8 = EDGE_CURVE ( 'NONE', #75, #75, #22, .T. ) ;
#9 = CIRCLE ( 'NONE', #67, 1.199999999999999956 ) ;
#10 = CARTESIAN_POINT ( 'NONE',  ( 3.491481338843133355E-14, 1.124819836996388827E-32, 10.00000000000000000 ) ) ;
#11 = DIRECTION ( 'NONE',  ( -3.491481338843133355E-15, 1.224646799147353207E-16, -1.000000000000000000 ) ) ;
#12 = CARTESIAN_POINT ( 'NONE',  ( 0.0000000000000000000, 0.0000000000000000000, 0.0000000000000000000 ) ) ;
#13 = PERSON_AND_ORGANIZATION ( #24, #4 ) ;
#14 = FACE_OUTER_BOUND ( 'NONE', #95, .T. ) ;
#15 = PERSON_AND_ORGANIZATION ( #24, #4 ) ;
#16 = CARTESIAN_POINT ( 'NONE',  ( 4.625124899114111185E-14, -1.629090582321105186E-15, 13.24688420258490851 ) ) ;
#17 = PERSON_AND_ORGANIZATION ( #24, #4 ) ;
#18 = PLANE ( 'NONE',  #167 ) ;
#19 = APPROVAL_ROLE ( '' ) ;
#20 = COORDINATED_UNIVERSAL_TIME_OFFSET ( 1, 0, .AHEAD. ) ;
#21 = APPROVAL ( #219, 'UNSPECIFIED' ) ;
#22 = CIRCLE ( 'NONE', #47, 0.6300000000000000044 ) ;
#23 = CC_DESIGN_APPROVAL ( #7, ( #115 ) ) ;
#24 = PERSON ( 'UNSPECIFIED', 'UNSPECIFIED', 'UNSPECIFIED', ('UNSPECIFIED'), ('UNSPECIFIED'), ('UNSPECIFIED') ) ;
#25 = MANIFOLD_SOLID_BREP ( 'Corps-Déplacer/Copier1[1]', #92 ) ;
#26 = CC_DESIGN_PERSON_AND_ORGANIZATION_ASSIGNMENT ( #200, #54, ( #124 ) ) ;
#27 = EDGE_LOOP ( 'NONE', ( #130 ) ) ;
#28 = ADVANCED_FACE ( 'NONE', ( #29 ), #98, .F. ) ;
#29 = FACE_OUTER_BOUND ( 'NONE', #100, .T. ) ;
#30 = EDGE_CURVE ( 'NONE', #220, #220, #9, .T. ) ;
#31 = CARTESIAN_POINT ( 'NONE',  ( 4.625124899114111185E-14, 1.499999999999996891, 13.24688420258490851 ) ) ;
#32 = DIRECTION ( 'NONE',  ( 0.0000000000000000000, 1.000000000000000000, 0.0000000000000000000 ) ) ;
#33 = AXIS2_PLACEMENT_3D ( 'NONE', #131, #163, #45 ) ;
#34 = DATE_TIME_ROLE ( 'creation_date' ) ;
#35 = DIRECTION ( 'NONE',  ( -3.491481338843133355E-15, 1.229791517316362731E-16, -1.000000000000000000 ) ) ;
#36 = AXIS2_PLACEMENT_3D ( 'NONE', #16, #73, #147 ) ;
#37 = PERSON_AND_ORGANIZATION_ROLE ( 'classification_officer' ) ;
#38 = DIRECTION ( 'NONE',  ( -3.491481338843133355E-15, 1.229791517316362731E-16, -1.000000000000000000 ) ) ;
#39 = MECHANICAL_CONTEXT ( 'NONE', #84, 'mechanical' ) ;
#40 = DIRECTION ( 'NONE',  ( 3.491481338843133355E-15, -1.224646799147353207E-16, 1.000000000000000000 ) ) ;
#41 = CC_DESIGN_DATE_AND_TIME_ASSIGNMENT ( #107, #34, ( #190 ) ) ;
#42 = APPLICATION_CONTEXT ( 'configuration controlled 3d designs of mechanical parts and assemblies' ) ;
#43 = DATE_AND_TIME ( #1, #125 ) ;
#44 = CC_DESIGN_PERSON_AND_ORGANIZATION_ASSIGNMENT ( #70, #154, ( #124 ) ) ;
#45 = DIRECTION ( 'NONE',  ( -4.275831445896958607E-31, -1.000000000000000000, -1.224646799147353207E-16 ) ) ;
#46 = ORIENTED_EDGE ( 'NONE', *, *, #30, .T. ) ;
#47 = AXIS2_PLACEMENT_3D ( 'NONE', #179, #11, #180 ) ;
#48 = AXIS2_PLACEMENT_3D ( 'NONE', #183, #221, #76 ) ;
#49 = ADVANCED_FACE ( 'NONE', ( #101 ), #18, .F. ) ;
#50 = FACE_OUTER_BOUND ( 'NONE', #156, .T. ) ;
#51 = ADVANCED_FACE ( 'NONE', ( #170 ), #93, .T. ) ;
#52 = PERSON_AND_ORGANIZATION_ROLE ( 'design_owner' ) ;
#53 = VERTEX_POINT ( 'NONE', #122 ) ;
#54 = PERSON_AND_ORGANIZATION_ROLE ( 'design_supplier' ) ;
#55 = DIRECTION ( 'NONE',  ( -3.491481338843133355E-15, 1.224646799147353207E-16, -1.000000000000000000 ) ) ;
#56 = DATE_AND_TIME ( #207, #69 ) ;
#57 = CYLINDRICAL_SURFACE ( 'NONE', #191, 0.6300000000000000044 ) ;
#58 = DATE_AND_TIME ( #165, #213 ) ;
#59 = APPROVAL_ROLE ( '' ) ;
#60 = AXIS2_PLACEMENT_3D ( 'NONE', #166, #55, #133 ) ;
#61 = CC_DESIGN_PERSON_AND_ORGANIZATION_ASSIGNMENT ( #141, #52, ( #97 ) ) ;
#62 = VERTEX_POINT ( 'NONE', #102 ) ;
#63 = EDGE_LOOP ( 'NONE', ( #159 ) ) ;
#64 = ORIENTED_EDGE ( 'NONE', *, *, #215, .T. ) ;
#65 = VERTEX_POINT ( 'NONE', #31 ) ;
#66 = ORIENTED_EDGE ( 'NONE', *, *, #77, .T. ) ;
#67 = AXIS2_PLACEMENT_3D ( 'NONE', #145, #214, #218 ) ;
#68 = DIRECTION ( 'NONE',  ( 4.275831445896958607E-31, 1.000000000000000000, 1.224646799147353207E-16 ) ) ;
#69 = LOCAL_TIME ( 11, 23, 0.0000000000000000000, #169 ) ;
#70 = PERSON_AND_ORGANIZATION ( #24, #4 ) ;
#71 = CARTESIAN_POINT ( 'NONE',  ( 1.326762908760390423E-13, 1.199999999999995293, 38.00000000000000000 ) ) ;
#72 = CALENDAR_DATE ( 2021, 28, 10 ) ;
#73 = DIRECTION ( 'NONE',  ( 3.491481338843133355E-15, -1.229791517316362731E-16, 1.000000000000000000 ) ) ;
#74 = APPROVAL_DATE_TIME ( #202, #142 ) ;
#75 = VERTEX_POINT ( 'NONE', #139 ) ;
#76 = DIRECTION ( 'NONE',  ( 1.000000000000000000, 0.0000000000000000000, 0.0000000000000000000 ) ) ;
#77 = EDGE_CURVE ( 'NONE', #53, #53, #155, .T. ) ;
#78 = CLOSED_SHELL ( 'NONE', ( #3, #129, #51 ) ) ;
#79 = CC_DESIGN_PERSON_AND_ORGANIZATION_ASSIGNMENT ( #17, #37, ( #115 ) ) ;
#80 = EDGE_LOOP ( 'NONE', ( #143 ) ) ;
#81 = ORIENTED_EDGE ( 'NONE', *, *, #140, .T. ) ;
#82 = CIRCLE ( 'NONE', #161, 1.499999999999999778 ) ;
#83 = DIRECTION ( 'NONE',  ( -4.275831445896958607E-31, -1.000000000000000000, -1.224646799147353207E-16 ) ) ;
#84 = APPLICATION_CONTEXT ( 'configuration controlled 3d designs of mechanical parts and assemblies' ) ;
#85 = CYLINDRICAL_SURFACE ( 'NONE', #60, 1.499999999999998224 ) ;
#86 = CALENDAR_DATE ( 2021, 28, 10 ) ;
#87 = ADVANCED_FACE ( 'NONE', ( #110, #208 ), #205, .T. ) ;
#88 = DIRECTION ( 'NONE',  ( 4.293794133377662246E-31, 1.000000000000000000, 1.229791517316362977E-16 ) ) ;
#89 =( NAMED_UNIT ( * ) PLANE_ANGLE_UNIT ( ) SI_UNIT ( $, .RADIAN. ) );
#90 = DIRECTION ( 'NONE',  ( 0.0000000000000000000, 1.000000000000000000, 0.0000000000000000000 ) ) ;
#91 = FACE_OUTER_BOUND ( 'NONE', #63, .T. ) ;
#92 = CLOSED_SHELL ( 'NONE', ( #181, #209, #49, #87, #28 ) ) ;
#93 = CONICAL_SURFACE ( 'NONE', #193, 1.499999999999995559, 1.221730476396026388 ) ;
#94 = CC_DESIGN_DATE_AND_TIME_ASSIGNMENT ( #56, #109, ( #115 ) ) ;
#95 = EDGE_LOOP ( 'NONE', ( #210 ) ) ;
#96 = ORIENTED_EDGE ( 'NONE', *, *, #215, .F. ) ;
#97 = PRODUCT ( '962916', '962916', '', ( #39 ) ) ;
#98 = PLANE ( 'NONE',  #203 ) ;
#99 = LOCAL_TIME ( 11, 23, 0.0000000000000000000, #20 ) ;
#100 = EDGE_LOOP ( 'NONE', ( #66 ) ) ;
#101 = FACE_OUTER_BOUND ( 'NONE', #80, .T. ) ;
#102 = CARTESIAN_POINT ( 'NONE',  ( 3.491481338843133355E-14, 0.6299999999999987832, 10.00000000000000000 ) ) ;
#103 = DIRECTION ( 'NONE',  ( 0.0000000000000000000, 1.000000000000000000, 0.0000000000000000000 ) ) ;
#104 =( LENGTH_UNIT ( ) NAMED_UNIT ( * ) SI_UNIT ( .MILLI., .METRE. ) );
#105 = DIRECTION ( 'NONE',  ( 0.0000000000000000000, 1.000000000000000000, 0.0000000000000000000 ) ) ;
#106 = CC_DESIGN_APPROVAL ( #21, ( #190 ) ) ;
#107 = DATE_AND_TIME ( #72, #212 ) ;
#108 = FACE_BOUND ( 'NONE', #5, .T. ) ;
#109 = DATE_TIME_ROLE ( 'classification_date' ) ;
#110 = FACE_BOUND ( 'NONE', #27, .T. ) ;
#111 = APPLICATION_PROTOCOL_DEFINITION ( 'international standard', 'config_control_design', 1994, #84 ) ;
#112 = AXIS2_PLACEMENT_3D ( 'NONE', #137, #38, #103 ) ;
#113 = SHAPE_DEFINITION_REPRESENTATION ( #6, #118 ) ;
#114 = AXIS2_PLACEMENT_3D ( 'NONE', #151, #223, #121 ) ;
#115 = SECURITY_CLASSIFICATION ( '', '', #123 ) ;
#116 = EDGE_LOOP ( 'NONE', ( #195 ) ) ;
#117 = EDGE_CURVE ( 'NONE', #162, #162, #82, .T. ) ;
#118 = ADVANCED_BREP_SHAPE_REPRESENTATION ( '962916', ( #25, #174, #48 ), #178 ) ;
#119 = AXIS2_PLACEMENT_3D ( 'NONE', #199, #182, #32 ) ;
#120 = CIRCLE ( 'NONE', #112, 0.6300000000000000044 ) ;
#121 = DIRECTION ( 'NONE',  ( 0.0000000000000000000, 1.000000000000000000, 0.0000000000000000000 ) ) ;
#122 = CARTESIAN_POINT ( 'NONE',  ( 3.491481338843133355E-14, 0.6299999999999987832, 10.00000000000000000 ) ) ;
#123 = SECURITY_CLASSIFICATION_LEVEL ( 'unclassified' ) ;
#124 = PRODUCT_DEFINITION_FORMATION_WITH_SPECIFIED_SOURCE ( 'ANY', '', #97, .NOT_KNOWN. ) ;
#125 = LOCAL_TIME ( 11, 23, 0.0000000000000000000, #152 ) ;
#126 = PERSON_AND_ORGANIZATION ( #24, #4 ) ;
#127 = APPROVAL_ROLE ( '' ) ;
#128 = CC_DESIGN_APPROVAL ( #142, ( #124 ) ) ;
#129 = ADVANCED_FACE ( 'NONE', ( #201, #14 ), #57, .T. ) ;
#130 = ORIENTED_EDGE ( 'NONE', *, *, #77, .F. ) ;
#131 = CARTESIAN_POINT ( 'NONE',  ( 3.491481338843133355E-14, 1.124819836996388827E-32, 10.00000000000000000 ) ) ;
#132 = EDGE_LOOP ( 'NONE', ( #81 ) ) ;
#133 = DIRECTION ( 'NONE',  ( 4.275831445896958607E-31, 1.000000000000000000, 1.224646799147353207E-16 ) ) ;
#134 = APPROVAL_PERSON_ORGANIZATION ( #126, #7, #19 ) ;
#135 = DIRECTION ( 'NONE',  ( -5.135813185032644414E-31, -1.000000000000000000, -1.445602896647343601E-16 ) ) ;
#136 = APPROVAL_STATUS ( 'not_yet_approved' ) ;
#137 = CARTESIAN_POINT ( 'NONE',  ( 3.491481338843133355E-14, -1.229791517316362583E-15, 10.00000000000000000 ) ) ;
#138 = APPLICATION_PROTOCOL_DEFINITION ( 'international standard', 'config_control_design', 1994, #42 ) ;
#139 = CARTESIAN_POINT ( 'NONE',  ( 8.006010269259397517E-16, -0.6300000000000000044, 0.2293012475877103384 ) ) ;
#140 = EDGE_CURVE ( 'NONE', #62, #62, #120, .T. ) ;
#141 = PERSON_AND_ORGANIZATION ( #24, #4 ) ;
#142 = APPROVAL ( #136, 'UNSPECIFIED' ) ;
#143 = ORIENTED_EDGE ( 'NONE', *, *, #30, .F. ) ;
#144 = EDGE_LOOP ( 'NONE', ( #196 ) ) ;
#145 = CARTESIAN_POINT ( 'NONE',  ( 1.326762908760390423E-13, -4.653657836759941941E-15, 38.00000000000000000 ) ) ;
#146 = CC_DESIGN_SECURITY_CLASSIFICATION ( #115, ( #124 ) ) ;
#147 = DIRECTION ( 'NONE',  ( 0.0000000000000000000, -1.000000000000000000, 0.0000000000000000000 ) ) ;
#148 = COORDINATED_UNIVERSAL_TIME_OFFSET ( 1, 0, .AHEAD. ) ;
#149 = DIRECTION ( 'NONE',  ( -3.491481338843133355E-15, 1.229791517316362731E-16, -1.000000000000000000 ) ) ;
#150 = CARTESIAN_POINT ( 'NONE',  ( 1.906192921252232855E-15, -6.686024735685322183E-17, 0.5459553513993090634 ) ) ;
#151 = CARTESIAN_POINT ( 'NONE',  ( 1.326762908760390423E-13, -4.653657836759941941E-15, 38.00000000000000000 ) ) ;
#152 = COORDINATED_UNIVERSAL_TIME_OFFSET ( 1, 0, .AHEAD. ) ;
#153 = CONICAL_SURFACE ( 'NONE', #114, 1.199999999999999956, 0.7853981633974453924 ) ;
#154 = PERSON_AND_ORGANIZATION_ROLE ( 'creator' ) ;
#155 = CIRCLE ( 'NONE', #119, 0.6300000000000000044 ) ;
#156 = EDGE_LOOP ( 'NONE', ( #177 ) ) ;
#157 = APPROVAL_PERSON_ORGANIZATION ( #15, #21, #59 ) ;
#158 = FACE_OUTER_BOUND ( 'NONE', #144, .T. ) ;
#159 = ORIENTED_EDGE ( 'NONE', *, *, #117, .T. ) ;
#160 = DIRECTION ( 'NONE',  ( 3.491481338843133355E-15, -1.224646799147353207E-16, 1.000000000000000000 ) ) ;
#161 = AXIS2_PLACEMENT_3D ( 'NONE', #187, #164, #105 ) ;
#162 = VERTEX_POINT ( 'NONE', #217 ) ;
#163 = DIRECTION ( 'NONE',  ( 3.491481338843133355E-15, -1.224646799147353207E-16, 1.000000000000000000 ) ) ;
#164 = DIRECTION ( 'NONE',  ( -3.491481338843133355E-15, 1.224646799147353207E-16, -1.000000000000000000 ) ) ;
#165 = CALENDAR_DATE ( 2021, 28, 10 ) ;
#166 = CARTESIAN_POINT ( 'NONE',  ( 0.0000000000000000000, 0.0000000000000000000, 0.0000000000000000000 ) ) ;
#167 = AXIS2_PLACEMENT_3D ( 'NONE', #189, #184, #68 ) ;
#168 = CARTESIAN_POINT ( 'NONE',  ( 4.625124899114111185E-14, -1.629090582321105186E-15, 13.24688420258490851 ) ) ;
#169 = COORDINATED_UNIVERSAL_TIME_OFFSET ( 1, 0, .AHEAD. ) ;
#170 = FACE_OUTER_BOUND ( 'NONE', #116, .T. ) ;
#171 = COORDINATED_UNIVERSAL_TIME_OFFSET ( 1, 0, .AHEAD. ) ;
#172 = APPROVAL_DATE_TIME ( #58, #21 ) ;
#173 = DESIGN_CONTEXT ( 'detailed design', #42, 'design' ) ;
#174 = MANIFOLD_SOLID_BREP ( 'Corps-Déplacer/Copier1[2]', #78 ) ;
#175 = PRODUCT_RELATED_PRODUCT_CATEGORY ( 'detail', '', ( #97 ) ) ;
#176 = APPROVAL_DATE_TIME ( #43, #7 ) ;
#177 = ORIENTED_EDGE ( 'NONE', *, *, #117, .F. ) ;
#178 =( GEOMETRIC_REPRESENTATION_CONTEXT ( 3 ) GLOBAL_UNCERTAINTY_ASSIGNED_CONTEXT ( ( #198 ) ) GLOBAL_UNIT_ASSIGNED_CONTEXT ( ( #104, #89, #186 ) ) REPRESENTATION_CONTEXT ( 'NONE', 'WORKASPACE' ) );
#179 = CARTESIAN_POINT ( 'NONE',  ( 8.006010269259400475E-16, -2.808130388987842860E-17, 0.2293012475877104217 ) ) ;
#180 = DIRECTION ( 'NONE',  ( -4.585547486636275424E-31, -1.000000000000000000, -1.290716872006552780E-16 ) ) ;
#181 = ADVANCED_FACE ( 'NONE', ( #204, #91 ), #85, .T. ) ;
#182 = DIRECTION ( 'NONE',  ( -3.491481338843133355E-15, 1.229791517316362731E-16, -1.000000000000000000 ) ) ;
#183 = CARTESIAN_POINT ( 'NONE',  ( 0.0000000000000000000, 0.0000000000000000000, 0.0000000000000000000 ) ) ;
#184 = DIRECTION ( 'NONE',  ( -3.491481338843133355E-15, 1.224646799147353207E-16, -1.000000000000000000 ) ) ;
#185 = CIRCLE ( 'NONE', #194, 1.499999999999998668 ) ;
#186 =( NAMED_UNIT ( * ) SI_UNIT ( $, .STERADIAN. ) SOLID_ANGLE_UNIT ( ) );
#187 = CARTESIAN_POINT ( 'NONE',  ( 1.316288464743861212E-13, -4.616918432785521081E-15, 37.69999999999999574 ) ) ;
#188 = APPROVAL_STATUS ( 'not_yet_approved' ) ;
#189 = CARTESIAN_POINT ( 'NONE',  ( 1.326762908760390423E-13, 8.998558695971077224E-33, 38.00000000000000000 ) ) ;
#190 = PRODUCT_DEFINITION ( 'UNKNOWN', '', #124, #173 ) ;
#191 = AXIS2_PLACEMENT_3D ( 'NONE', #12, #35, #88 ) ;
#192 = CC_DESIGN_PERSON_AND_ORGANIZATION_ASSIGNMENT ( #13, #2, ( #190 ) ) ;
#193 = AXIS2_PLACEMENT_3D ( 'NONE', #150, #40, #135 ) ;
#194 = AXIS2_PLACEMENT_3D ( 'NONE', #168, #149, #90 ) ;
#195 = ORIENTED_EDGE ( 'NONE', *, *, #8, .T. ) ;
#196 = ORIENTED_EDGE ( 'NONE', *, *, #140, .F. ) ;
#197 = EDGE_LOOP ( 'NONE', ( #64 ) ) ;
#198 = UNCERTAINTY_MEASURE_WITH_UNIT (LENGTH_MEASURE( 1.000000000000000082E-05 ), #104, 'distance_accuracy_value', 'NONE');
#199 = CARTESIAN_POINT ( 'NONE',  ( 3.491481338843133355E-14, -1.229791517316362583E-15, 10.00000000000000000 ) ) ;
#200 = PERSON_AND_ORGANIZATION ( #24, #4 ) ;
#201 = FACE_OUTER_BOUND ( 'NONE', #132, .T. ) ;
#202 = DATE_AND_TIME ( #86, #99 ) ;
#203 = AXIS2_PLACEMENT_3D ( 'NONE', #10, #160, #83 ) ;
#204 = FACE_OUTER_BOUND ( 'NONE', #216, .T. ) ;
#205 = CONICAL_SURFACE ( 'NONE', #36, 1.499999999999998668, 0.2617993877991501295 ) ;
#206 = APPROVAL_PERSON_ORGANIZATION ( #222, #142, #127 ) ;
#207 = CALENDAR_DATE ( 2021, 28, 10 ) ;
#208 = FACE_OUTER_BOUND ( 'NONE', #197, .T. ) ;
#209 = ADVANCED_FACE ( 'NONE', ( #50, #108 ), #153, .T. ) ;
#210 = ORIENTED_EDGE ( 'NONE', *, *, #8, .F. ) ;
#211 = PLANE ( 'NONE',  #33 ) ;
#212 = LOCAL_TIME ( 11, 23, 0.0000000000000000000, #148 ) ;
#213 = LOCAL_TIME ( 11, 23, 0.0000000000000000000, #171 ) ;
#214 = DIRECTION ( 'NONE',  ( -3.491481338843133355E-15, 1.224646799147353207E-16, -1.000000000000000000 ) ) ;
#215 = EDGE_CURVE ( 'NONE', #65, #65, #185, .T. ) ;
#216 = EDGE_LOOP ( 'NONE', ( #96 ) ) ;
#217 = CARTESIAN_POINT ( 'NONE',  ( 1.316288464743861212E-13, 1.499999999999995337, 37.69999999999999574 ) ) ;
#218 = DIRECTION ( 'NONE',  ( 0.0000000000000000000, 1.000000000000000000, 0.0000000000000000000 ) ) ;
#219 = APPROVAL_STATUS ( 'not_yet_approved' ) ;
#220 = VERTEX_POINT ( 'NONE', #71 ) ;
#221 = DIRECTION ( 'NONE',  ( 0.0000000000000000000, 0.0000000000000000000, 1.000000000000000000 ) ) ;
#222 = PERSON_AND_ORGANIZATION ( #24, #4 ) ;
#223 = DIRECTION ( 'NONE',  ( -3.491481338843133355E-15, 1.224646799147353207E-16, -1.000000000000000000 ) ) ;
ENDSEC;
END-ISO-10303-21;
