ISO-10303-21;
HEADER;
FILE_DESCRIPTION (( 'STEP AP203' ),
    '1' );
FILE_NAME ('962915.step',
    '2021-10-28T09:22:59',
    ( '' ),
    ( '' ),
    'SwSTEP 2.0',
    'SolidWorks 2019',
    '' );
FILE_SCHEMA (( 'CONFIG_CONTROL_DESIGN' ));
ENDSEC;

DATA;
#1 = DIRECTION ( 'NONE',  ( 0.0000000000000000000, 1.000000000000000000, 0.0000000000000000000 ) ) ;
#2 = AXIS2_PLACEMENT_3D ( 'NONE', #161, #162, #6 ) ;
#3 = ORIENTED_EDGE ( 'NONE', *, *, #49, .T. ) ;
#4 = EDGE_CURVE ( 'NONE', #127, #127, #100, .T. ) ;
#5 = CARTESIAN_POINT ( 'NONE',  ( 3.491481338843133355E-14, 0.6249999999999987788, 10.00000000000000000 ) ) ;
#6 = DIRECTION ( 'NONE',  ( -5.135813185032644414E-31, -1.000000000000000000, -1.445602896647343601E-16 ) ) ;
#7 = ADVANCED_FACE ( 'NONE', ( #54, #52 ), #168, .T. ) ;
#8 = FACE_OUTER_BOUND ( 'NONE', #84, .T. ) ;
#9 = DIRECTION ( 'NONE',  ( -4.275831445896958607E-31, -1.000000000000000000, -1.224646799147353207E-16 ) ) ;
#10 = DIRECTION ( 'NONE',  ( -3.491481338843133355E-15, 1.224646799147353207E-16, -1.000000000000000000 ) ) ;
#11 = AXIS2_PLACEMENT_3D ( 'NONE', #184, #74, #202 ) ;
#12 =( NAMED_UNIT ( * ) PLANE_ANGLE_UNIT ( ) SI_UNIT ( $, .RADIAN. ) );
#13 = CC_DESIGN_PERSON_AND_ORGANIZATION_ASSIGNMENT ( #69, #82, ( #140 ) ) ;
#14 = CLOSED_SHELL ( 'NONE', ( #109, #215, #76 ) ) ;
#15 = PERSON_AND_ORGANIZATION ( #165, #66 ) ;
#16 = COORDINATED_UNIVERSAL_TIME_OFFSET ( 1, 0, .AHEAD. ) ;
#17 = ORIENTED_EDGE ( 'NONE', *, *, #4, .T. ) ;
#18 = APPROVAL_PERSON_ORGANIZATION ( #153, #53, #223 ) ;
#19 = DIRECTION ( 'NONE',  ( 0.0000000000000000000, 0.0000000000000000000, 1.000000000000000000 ) ) ;
#20 = CARTESIAN_POINT ( 'NONE',  ( 4.631640091989232012E-14, 1.499999999999996891, 13.26554445662275405 ) ) ;
#21 = ORIENTED_EDGE ( 'NONE', *, *, #155, .F. ) ;
#22 = EDGE_LOOP ( 'NONE', ( #3 ) ) ;
#23 = CONICAL_SURFACE ( 'NONE', #2, 1.499999999999995559, 1.221730476396026388 ) ;
#24 = CC_DESIGN_PERSON_AND_ORGANIZATION_ASSIGNMENT ( #134, #137, ( #81 ) ) ;
#25 = APPLICATION_CONTEXT ( 'configuration controlled 3d designs of mechanical parts and assemblies' ) ;
#26 = CARTESIAN_POINT ( 'NONE',  ( 0.0000000000000000000, 0.0000000000000000000, 0.0000000000000000000 ) ) ;
#27 = CARTESIAN_POINT ( 'NONE',  ( 3.491481338843133355E-14, 1.124819836996388827E-32, 10.00000000000000000 ) ) ;
#28 = AXIS2_PLACEMENT_3D ( 'NONE', #103, #19, #33 ) ;
#29 = DIRECTION ( 'NONE',  ( 0.0000000000000000000, -1.000000000000000000, 0.0000000000000000000 ) ) ;
#30 = DIRECTION ( 'NONE',  ( 4.275831445896958607E-31, 1.000000000000000000, 1.224646799147353207E-16 ) ) ;
#31 = DIRECTION ( 'NONE',  ( -3.491481338843133355E-15, 1.229791517316362731E-16, -1.000000000000000000 ) ) ;
#32 = PERSON_AND_ORGANIZATION_ROLE ( 'creator' ) ;
#33 = DIRECTION ( 'NONE',  ( 1.000000000000000000, 0.0000000000000000000, 0.0000000000000000000 ) ) ;
#34 = PERSON_AND_ORGANIZATION ( #165, #66 ) ;
#35 = CALENDAR_DATE ( 2021, 28, 10 ) ;
#36 = EDGE_LOOP ( 'NONE', ( #50 ) ) ;
#37 = APPLICATION_CONTEXT ( 'configuration controlled 3d designs of mechanical parts and assemblies' ) ;
#38 =( GEOMETRIC_REPRESENTATION_CONTEXT ( 3 ) GLOBAL_UNCERTAINTY_ASSIGNED_CONTEXT ( ( #177 ) ) GLOBAL_UNIT_ASSIGNED_CONTEXT ( ( #132, #12, #192 ) ) REPRESENTATION_CONTEXT ( 'NONE', 'WORKASPACE' ) );
#39 = PLANE ( 'NONE',  #218 ) ;
#40 = VERTEX_POINT ( 'NONE', #180 ) ;
#41 = DIRECTION ( 'NONE',  ( 4.275831445896958607E-31, 1.000000000000000000, 1.224646799147353207E-16 ) ) ;
#42 = CARTESIAN_POINT ( 'NONE',  ( 3.491481338843133355E-14, 0.6249999999999987788, 10.00000000000000000 ) ) ;
#43 = FACE_BOUND ( 'NONE', #209, .T. ) ;
#44 = EDGE_CURVE ( 'NONE', #216, #216, #64, .T. ) ;
#45 = ADVANCED_FACE ( 'NONE', ( #213 ), #163, .F. ) ;
#46 = AXIS2_PLACEMENT_3D ( 'NONE', #48, #172, #1 ) ;
#47 = DATE_AND_TIME ( #156, #197 ) ;
#48 = CARTESIAN_POINT ( 'NONE',  ( 3.491481338843133355E-14, -1.229791517316362583E-15, 10.00000000000000000 ) ) ;
#49 = EDGE_CURVE ( 'NONE', #40, #40, #171, .T. ) ;
#50 = ORIENTED_EDGE ( 'NONE', *, *, #93, .F. ) ;
#51 = DESIGN_CONTEXT ( 'detailed design', #37, 'design' ) ;
#52 = FACE_BOUND ( 'NONE', #139, .T. ) ;
#53 = APPROVAL ( #191, 'UNSPECIFIED' ) ;
#54 = FACE_OUTER_BOUND ( 'NONE', #106, .T. ) ;
#55 = CARTESIAN_POINT ( 'NONE',  ( 3.491481338843133355E-14, -1.229791517316362583E-15, 10.00000000000000000 ) ) ;
#56 = AXIS2_PLACEMENT_3D ( 'NONE', #94, #10, #30 ) ;
#57 = DIRECTION ( 'NONE',  ( 3.491481338843133355E-15, -1.224646799147353207E-16, 1.000000000000000000 ) ) ;
#58 = DIRECTION ( 'NONE',  ( -4.622231866529366047E-31, -1.000000000000000000, -1.301042606982605321E-16 ) ) ;
#59 = CARTESIAN_POINT ( 'NONE',  ( 1.326762908760390423E-13, 1.199999999999995293, 38.00000000000000000 ) ) ;
#60 = CONICAL_SURFACE ( 'NONE', #176, 1.499999999999998668, 0.2617993877991501295 ) ;
#61 = FACE_OUTER_BOUND ( 'NONE', #196, .T. ) ;
#62 = PRODUCT_DEFINITION_SHAPE ( 'NONE', 'NONE',  #140 ) ;
#63 = PERSON_AND_ORGANIZATION_ROLE ( 'design_owner' ) ;
#64 = CIRCLE ( 'NONE', #11, 1.499999999999999778 ) ;
#65 = COORDINATED_UNIVERSAL_TIME_OFFSET ( 1, 0, .AHEAD. ) ;
#66 = ORGANIZATION ( 'UNSPECIFIED', 'UNSPECIFIED', '' ) ;
#67 = APPLICATION_PROTOCOL_DEFINITION ( 'international standard', 'config_control_design', 1994, #37 ) ;
#68 = ORIENTED_EDGE ( 'NONE', *, *, #167, .T. ) ;
#69 = PERSON_AND_ORGANIZATION ( #165, #66 ) ;
#70 = AXIS2_PLACEMENT_3D ( 'NONE', #113, #57, #9 ) ;
#71 = DIRECTION ( 'NONE',  ( -3.491481338843133355E-15, 1.224646799147353207E-16, -1.000000000000000000 ) ) ;
#72 = ADVANCED_FACE ( 'NONE', ( #61, #182 ), #75, .T. ) ;
#73 = SHAPE_DEFINITION_REPRESENTATION ( #62, #83 ) ;
#74 = DIRECTION ( 'NONE',  ( -3.491481338843133355E-15, 1.224646799147353207E-16, -1.000000000000000000 ) ) ;
#75 = CYLINDRICAL_SURFACE ( 'NONE', #130, 1.499999999999998224 ) ;
#76 = ADVANCED_FACE ( 'NONE', ( #110 ), #23, .T. ) ;
#77 = CARTESIAN_POINT ( 'NONE',  ( 4.631640091989232012E-14, -1.631385404533776212E-15, 13.26554445662275405 ) ) ;
#78 = AXIS2_PLACEMENT_3D ( 'NONE', #55, #186, #111 ) ;
#79 = DIRECTION ( 'NONE',  ( 3.491481338843133355E-15, -1.224646799147353207E-16, 1.000000000000000000 ) ) ;
#80 = APPROVAL_ROLE ( '' ) ;
#81 = PRODUCT_DEFINITION_FORMATION_WITH_SPECIFIED_SOURCE ( 'ANY', '', #91, .NOT_KNOWN. ) ;
#82 = PERSON_AND_ORGANIZATION_ROLE ( 'creator' ) ;
#83 = ADVANCED_BREP_SHAPE_REPRESENTATION ( '962915', ( #120, #199, #28 ), #38 ) ;
#84 = EDGE_LOOP ( 'NONE', ( #123 ) ) ;
#85 = CC_DESIGN_APPROVAL ( #87, ( #81 ) ) ;
#86 = APPLICATION_PROTOCOL_DEFINITION ( 'international standard', 'config_control_design', 1994, #25 ) ;
#87 = APPROVAL ( #122, 'UNSPECIFIED' ) ;
#88 = EDGE_LOOP ( 'NONE', ( #17 ) ) ;
#89 = AXIS2_PLACEMENT_3D ( 'NONE', #198, #31, #164 ) ;
#90 = ORIENTED_EDGE ( 'NONE', *, *, #49, .F. ) ;
#91 = PRODUCT ( '962915', '962915', '', ( #190 ) ) ;
#92 = DIRECTION ( 'NONE',  ( -3.491481338843133355E-15, 1.229791517316362731E-16, -1.000000000000000000 ) ) ;
#93 = EDGE_CURVE ( 'NONE', #145, #145, #135, .T. ) ;
#94 = CARTESIAN_POINT ( 'NONE',  ( 1.326762908760390423E-13, 8.998558695971077224E-33, 38.00000000000000000 ) ) ;
#95 = VERTEX_POINT ( 'NONE', #42 ) ;
#96 = CC_DESIGN_PERSON_AND_ORGANIZATION_ASSIGNMENT ( #221, #63, ( #91 ) ) ;
#97 = CARTESIAN_POINT ( 'NONE',  ( 1.326762908760390423E-13, -4.653657836759941941E-15, 38.00000000000000000 ) ) ;
#98 = FACE_OUTER_BOUND ( 'NONE', #108, .T. ) ;
#99 = CC_DESIGN_APPROVAL ( #159, ( #140 ) ) ;
#100 = CIRCLE ( 'NONE', #46, 0.6250000000000000000 ) ;
#101 = APPROVAL_ROLE ( '' ) ;
#102 = COORDINATED_UNIVERSAL_TIME_OFFSET ( 1, 0, .AHEAD. ) ;
#103 = CARTESIAN_POINT ( 'NONE',  ( 0.0000000000000000000, 0.0000000000000000000, 0.0000000000000000000 ) ) ;
#104 = CIRCLE ( 'NONE', #78, 0.6250000000000000000 ) ;
#105 = APPROVAL_DATE_TIME ( #166, #87 ) ;
#106 = EDGE_LOOP ( 'NONE', ( #178 ) ) ;
#107 = EDGE_LOOP ( 'NONE', ( #68 ) ) ;
#108 = EDGE_LOOP ( 'NONE', ( #157 ) ) ;
#109 = ADVANCED_FACE ( 'NONE', ( #8 ), #128, .T. ) ;
#110 = FACE_OUTER_BOUND ( 'NONE', #22, .T. ) ;
#111 = DIRECTION ( 'NONE',  ( 0.0000000000000000000, 1.000000000000000000, 0.0000000000000000000 ) ) ;
#112 = DIRECTION ( 'NONE',  ( -3.491481338843133355E-15, 1.224646799147353207E-16, -1.000000000000000000 ) ) ;
#113 = CARTESIAN_POINT ( 'NONE',  ( 3.491481338843133355E-14, 1.124819836996388827E-32, 10.00000000000000000 ) ) ;
#114 = LOCAL_TIME ( 11, 22, 59.00000000000000000, #16 ) ;
#115 = CC_DESIGN_DATE_AND_TIME_ASSIGNMENT ( #207, #148, ( #140 ) ) ;
#116 = CC_DESIGN_SECURITY_CLASSIFICATION ( #212, ( #81 ) ) ;
#117 = CC_DESIGN_PERSON_AND_ORGANIZATION_ASSIGNMENT ( #220, #32, ( #81 ) ) ;
#118 = VERTEX_POINT ( 'NONE', #20 ) ;
#119 = AXIS2_PLACEMENT_3D ( 'NONE', #97, #71, #147 ) ;
#120 = MANIFOLD_SOLID_BREP ( 'Corps-Déplacer/Copier1[1]', #151 ) ;
#121 = APPROVAL_DATE_TIME ( #47, #159 ) ;
#122 = APPROVAL_STATUS ( 'not_yet_approved' ) ;
#123 = ORIENTED_EDGE ( 'NONE', *, *, #4, .F. ) ;
#124 = CARTESIAN_POINT ( 'NONE',  ( 1.326762908760390423E-13, -4.653657836759941941E-15, 38.00000000000000000 ) ) ;
#125 = FACE_OUTER_BOUND ( 'NONE', #88, .T. ) ;
#126 = AXIS2_PLACEMENT_3D ( 'NONE', #26, #92, #160 ) ;
#127 = VERTEX_POINT ( 'NONE', #5 ) ;
#128 = PLANE ( 'NONE',  #70 ) ;
#129 = FACE_OUTER_BOUND ( 'NONE', #141, .T. ) ;
#130 = AXIS2_PLACEMENT_3D ( 'NONE', #142, #112, #41 ) ;
#131 = DIRECTION ( 'NONE',  ( -3.491481338843133355E-15, 1.224646799147353207E-16, -1.000000000000000000 ) ) ;
#132 =( LENGTH_UNIT ( ) NAMED_UNIT ( * ) SI_UNIT ( .MILLI., .METRE. ) );
#133 = ADVANCED_FACE ( 'NONE', ( #43, #146 ), #60, .T. ) ;
#134 = PERSON_AND_ORGANIZATION ( #165, #66 ) ;
#135 = CIRCLE ( 'NONE', #119, 1.199999999999999956 ) ;
#136 = DATE_AND_TIME ( #206, #114 ) ;
#137 = PERSON_AND_ORGANIZATION_ROLE ( 'design_supplier' ) ;
#138 = PERSON_AND_ORGANIZATION ( #165, #66 ) ;
#139 = EDGE_LOOP ( 'NONE', ( #210 ) ) ;
#140 = PRODUCT_DEFINITION ( 'UNKNOWN', '', #81, #51 ) ;
#141 = EDGE_LOOP ( 'NONE', ( #90 ) ) ;
#142 = CARTESIAN_POINT ( 'NONE',  ( 0.0000000000000000000, 0.0000000000000000000, 0.0000000000000000000 ) ) ;
#143 = LOCAL_TIME ( 11, 22, 59.00000000000000000, #175 ) ;
#144 = DATE_AND_TIME ( #181, #143 ) ;
#145 = VERTEX_POINT ( 'NONE', #59 ) ;
#146 = FACE_OUTER_BOUND ( 'NONE', #107, .T. ) ;
#147 = DIRECTION ( 'NONE',  ( 0.0000000000000000000, 1.000000000000000000, 0.0000000000000000000 ) ) ;
#148 = DATE_TIME_ROLE ( 'creation_date' ) ;
#149 = CC_DESIGN_PERSON_AND_ORGANIZATION_ASSIGNMENT ( #15, #152, ( #212 ) ) ;
#150 = COORDINATED_UNIVERSAL_TIME_OFFSET ( 1, 0, .AHEAD. ) ;
#151 = CLOSED_SHELL ( 'NONE', ( #72, #7, #45, #133, #185 ) ) ;
#152 = PERSON_AND_ORGANIZATION_ROLE ( 'classification_officer' ) ;
#153 = PERSON_AND_ORGANIZATION ( #165, #66 ) ;
#154 = APPROVAL_PERSON_ORGANIZATION ( #34, #87, #101 ) ;
#155 = EDGE_CURVE ( 'NONE', #95, #95, #104, .T. ) ;
#156 = CALENDAR_DATE ( 2021, 28, 10 ) ;
#157 = ORIENTED_EDGE ( 'NONE', *, *, #155, .T. ) ;
#158 = APPROVAL_DATE_TIME ( #144, #53 ) ;
#159 = APPROVAL ( #187, 'UNSPECIFIED' ) ;
#160 = DIRECTION ( 'NONE',  ( 4.293794133377662246E-31, 1.000000000000000000, 1.229791517316362484E-16 ) ) ;
#161 = CARTESIAN_POINT ( 'NONE',  ( 1.906192921252232855E-15, -6.686024735685322183E-17, 0.5459553513993090634 ) ) ;
#162 = DIRECTION ( 'NONE',  ( 3.491481338843133355E-15, -1.224646799147353207E-16, 1.000000000000000000 ) ) ;
#163 = PLANE ( 'NONE',  #56 ) ;
#164 = DIRECTION ( 'NONE',  ( 0.0000000000000000000, 1.000000000000000000, 0.0000000000000000000 ) ) ;
#165 = PERSON ( 'UNSPECIFIED', 'UNSPECIFIED', 'UNSPECIFIED', ('UNSPECIFIED'), ('UNSPECIFIED'), ('UNSPECIFIED') ) ;
#166 = DATE_AND_TIME ( #35, #208 ) ;
#167 = EDGE_CURVE ( 'NONE', #118, #118, #189, .T. ) ;
#168 = CONICAL_SURFACE ( 'NONE', #219, 1.199999999999999956, 0.7853981633974453924 ) ;
#169 = SECURITY_CLASSIFICATION_LEVEL ( 'unclassified' ) ;
#170 = ORIENTED_EDGE ( 'NONE', *, *, #167, .F. ) ;
#171 = CIRCLE ( 'NONE', #193, 0.6250000000000000000 ) ;
#172 = DIRECTION ( 'NONE',  ( -3.491481338843133355E-15, 1.229791517316362731E-16, -1.000000000000000000 ) ) ;
#173 = PRODUCT_RELATED_PRODUCT_CATEGORY ( 'detail', '', ( #91 ) ) ;
#174 = ORIENTED_EDGE ( 'NONE', *, *, #44, .T. ) ;
#175 = COORDINATED_UNIVERSAL_TIME_OFFSET ( 1, 0, .AHEAD. ) ;
#176 = AXIS2_PLACEMENT_3D ( 'NONE', #77, #217, #29 ) ;
#177 = UNCERTAINTY_MEASURE_WITH_UNIT (LENGTH_MEASURE( 1.000000000000000082E-05 ), #132, 'distance_accuracy_value', 'NONE');
#178 = ORIENTED_EDGE ( 'NONE', *, *, #44, .F. ) ;
#179 = CYLINDRICAL_SURFACE ( 'NONE', #126, 0.6250000000000000000 ) ;
#180 = CARTESIAN_POINT ( 'NONE',  ( 7.942470505217655961E-16, -0.6250000000000000000, 0.2274813964163793223 ) ) ;
#181 = CALENDAR_DATE ( 2021, 28, 10 ) ;
#182 = FACE_OUTER_BOUND ( 'NONE', #194, .T. ) ;
#183 = APPROVAL_PERSON_ORGANIZATION ( #138, #159, #80 ) ;
#184 = CARTESIAN_POINT ( 'NONE',  ( 1.316288464743861212E-13, -4.616918432785521081E-15, 37.69999999999999574 ) ) ;
#185 = ADVANCED_FACE ( 'NONE', ( #98 ), #39, .F. ) ;
#186 = DIRECTION ( 'NONE',  ( -3.491481338843133355E-15, 1.229791517316362731E-16, -1.000000000000000000 ) ) ;
#187 = APPROVAL_STATUS ( 'not_yet_approved' ) ;
#188 = CC_DESIGN_APPROVAL ( #53, ( #212 ) ) ;
#189 = CIRCLE ( 'NONE', #89, 1.499999999999998668 ) ;
#190 = MECHANICAL_CONTEXT ( 'NONE', #25, 'mechanical' ) ;
#191 = APPROVAL_STATUS ( 'not_yet_approved' ) ;
#192 =( NAMED_UNIT ( * ) SI_UNIT ( $, .STERADIAN. ) SOLID_ANGLE_UNIT ( ) );
#193 = AXIS2_PLACEMENT_3D ( 'NONE', #203, #201, #58 ) ;
#194 = EDGE_LOOP ( 'NONE', ( #174 ) ) ;
#195 = CC_DESIGN_DATE_AND_TIME_ASSIGNMENT ( #136, #205, ( #212 ) ) ;
#196 = EDGE_LOOP ( 'NONE', ( #170 ) ) ;
#197 = LOCAL_TIME ( 11, 22, 59.00000000000000000, #102 ) ;
#198 = CARTESIAN_POINT ( 'NONE',  ( 4.631640091989232012E-14, -1.631385404533776212E-15, 13.26554445662275405 ) ) ;
#199 = MANIFOLD_SOLID_BREP ( 'Corps-Déplacer/Copier1[2]', #14 ) ;
#200 = CARTESIAN_POINT ( 'NONE',  ( 1.316288464743861212E-13, 1.499999999999995337, 37.69999999999999574 ) ) ;
#201 = DIRECTION ( 'NONE',  ( -3.491481338843133355E-15, 1.224646799147353207E-16, -1.000000000000000000 ) ) ;
#202 = DIRECTION ( 'NONE',  ( 0.0000000000000000000, 1.000000000000000000, 0.0000000000000000000 ) ) ;
#203 = CARTESIAN_POINT ( 'NONE',  ( 7.942470505217658920E-16, -2.785843639868891228E-17, 0.2274813964163794056 ) ) ;
#204 = CALENDAR_DATE ( 2021, 28, 10 ) ;
#205 = DATE_TIME_ROLE ( 'classification_date' ) ;
#206 = CALENDAR_DATE ( 2021, 28, 10 ) ;
#207 = DATE_AND_TIME ( #204, #222 ) ;
#208 = LOCAL_TIME ( 11, 22, 59.00000000000000000, #150 ) ;
#209 = EDGE_LOOP ( 'NONE', ( #21 ) ) ;
#210 = ORIENTED_EDGE ( 'NONE', *, *, #93, .T. ) ;
#211 = DIRECTION ( 'NONE',  ( -4.275831445896958607E-31, -1.000000000000000000, -1.224646799147353207E-16 ) ) ;
#212 = SECURITY_CLASSIFICATION ( '', '', #169 ) ;
#213 = FACE_OUTER_BOUND ( 'NONE', #36, .T. ) ;
#214 = DIRECTION ( 'NONE',  ( 0.0000000000000000000, 1.000000000000000000, 0.0000000000000000000 ) ) ;
#215 = ADVANCED_FACE ( 'NONE', ( #125, #129 ), #179, .T. ) ;
#216 = VERTEX_POINT ( 'NONE', #200 ) ;
#217 = DIRECTION ( 'NONE',  ( 3.491481338843133355E-15, -1.229791517316362731E-16, 1.000000000000000000 ) ) ;
#218 = AXIS2_PLACEMENT_3D ( 'NONE', #27, #79, #211 ) ;
#219 = AXIS2_PLACEMENT_3D ( 'NONE', #124, #131, #214 ) ;
#220 = PERSON_AND_ORGANIZATION ( #165, #66 ) ;
#221 = PERSON_AND_ORGANIZATION ( #165, #66 ) ;
#222 = LOCAL_TIME ( 11, 22, 59.00000000000000000, #65 ) ;
#223 = APPROVAL_ROLE ( '' ) ;
ENDSEC;
END-ISO-10303-21;
