ISO-10303-21;
HEADER;
FILE_DESCRIPTION (( 'STEP AP203' ),
    '1' );
FILE_NAME ('962914.step',
    '2021-10-28T09:22:59',
    ( '' ),
    ( '' ),
    'SwSTEP 2.0',
    'SolidWorks 2019',
    '' );
FILE_SCHEMA (( 'CONFIG_CONTROL_DESIGN' ));
ENDSEC;

DATA;
#1 = LOCAL_TIME ( 11, 22, 59.00000000000000000, #165 ) ;
#2 = LOCAL_TIME ( 11, 22, 59.00000000000000000, #14 ) ;
#3 = ADVANCED_FACE ( 'NONE', ( #84, #102 ), #64, .T. ) ;
#4 = ORIENTED_EDGE ( 'NONE', *, *, #109, .T. ) ;
#5 = ORIENTED_EDGE ( 'NONE', *, *, #128, .F. ) ;
#6 = FACE_OUTER_BOUND ( 'NONE', #175, .T. ) ;
#7 = AXIS2_PLACEMENT_3D ( 'NONE', #182, #75, #89 ) ;
#8 = CC_DESIGN_DATE_AND_TIME_ASSIGNMENT ( #12, #50, ( #176 ) ) ;
#9 = DIRECTION ( 'NONE',  ( 0.0000000000000000000, 1.000000000000000000, 0.0000000000000000000 ) ) ;
#10 = CARTESIAN_POINT ( 'NONE',  ( 3.491481338843133355E-14, 1.124819836996388827E-32, 10.00000000000000000 ) ) ;
#11 = CARTESIAN_POINT ( 'NONE',  ( 0.0000000000000000000, 0.0000000000000000000, 0.0000000000000000000 ) ) ;
#12 = DATE_AND_TIME ( #98, #19 ) ;
#13 = PERSON_AND_ORGANIZATION ( #164, #160 ) ;
#14 = COORDINATED_UNIVERSAL_TIME_OFFSET ( 1, 0, .AHEAD. ) ;
#15 = LOCAL_TIME ( 11, 22, 59.00000000000000000, #167 ) ;
#16 = DIRECTION ( 'NONE',  ( 1.000000000000000000, 0.0000000000000000000, 0.0000000000000000000 ) ) ;
#17 = CARTESIAN_POINT ( 'NONE',  ( 0.0000000000000000000, 0.0000000000000000000, 0.0000000000000000000 ) ) ;
#18 = AXIS2_PLACEMENT_3D ( 'NONE', #11, #28, #214 ) ;
#19 = LOCAL_TIME ( 11, 22, 59.00000000000000000, #94 ) ;
#20 = CC_DESIGN_PERSON_AND_ORGANIZATION_ASSIGNMENT ( #124, #218, ( #176 ) ) ;
#21 = ADVANCED_FACE ( 'NONE', ( #117, #87 ), #221, .T. ) ;
#22 = APPROVAL_DATE_TIME ( #104, #161 ) ;
#23 = AXIS2_PLACEMENT_3D ( 'NONE', #103, #216, #48 ) ;
#24 = MANIFOLD_SOLID_BREP ( 'Corps-Déplacer/Copier1[2]', #172 ) ;
#25 = CARTESIAN_POINT ( 'NONE',  ( 1.326762908760390423E-13, -4.653657836759941941E-15, 38.00000000000000000 ) ) ;
#26 = VERTEX_POINT ( 'NONE', #155 ) ;
#27 = DIRECTION ( 'NONE',  ( 0.0000000000000000000, 1.000000000000000000, 0.0000000000000000000 ) ) ;
#28 = DIRECTION ( 'NONE',  ( -3.491481338843133355E-15, 1.229791517316362731E-16, -1.000000000000000000 ) ) ;
#29 = VERTEX_POINT ( 'NONE', #107 ) ;
#30 = FACE_OUTER_BOUND ( 'NONE', #43, .T. ) ;
#31 = PERSON_AND_ORGANIZATION_ROLE ( 'design_owner' ) ;
#32 = CALENDAR_DATE ( 2021, 28, 10 ) ;
#33 = CC_DESIGN_PERSON_AND_ORGANIZATION_ASSIGNMENT ( #13, #145, ( #139 ) ) ;
#34 =( NAMED_UNIT ( * ) SI_UNIT ( $, .STERADIAN. ) SOLID_ANGLE_UNIT ( ) );
#35 = CC_DESIGN_APPROVAL ( #161, ( #194 ) ) ;
#36 = ADVANCED_BREP_SHAPE_REPRESENTATION ( '962914', ( #174, #24, #55 ), #76 ) ;
#37 = APPLICATION_PROTOCOL_DEFINITION ( 'international standard', 'config_control_design', 1994, #132 ) ;
#38 = ADVANCED_FACE ( 'NONE', ( #217, #45 ), #158, .T. ) ;
#39 = AXIS2_PLACEMENT_3D ( 'NONE', #25, #153, #211 ) ;
#40 = ORIENTED_EDGE ( 'NONE', *, *, #109, .F. ) ;
#41 = EDGE_LOOP ( 'NONE', ( #154 ) ) ;
#42 = AXIS2_PLACEMENT_3D ( 'NONE', #140, #198, #9 ) ;
#43 = EDGE_LOOP ( 'NONE', ( #173 ) ) ;
#44 = DIRECTION ( 'NONE',  ( 4.275831445896958607E-31, 1.000000000000000000, 1.224646799147353207E-16 ) ) ;
#45 = FACE_OUTER_BOUND ( 'NONE', #85, .T. ) ;
#46 = APPROVAL_ROLE ( '' ) ;
#47 = DIRECTION ( 'NONE',  ( -3.491481338843133355E-15, 1.224646799147353207E-16, -1.000000000000000000 ) ) ;
#48 = DIRECTION ( 'NONE',  ( -4.275831445896958607E-31, -1.000000000000000000, -1.224646799147353207E-16 ) ) ;
#49 = CARTESIAN_POINT ( 'NONE',  ( 4.638155284864352839E-14, -1.633680226746447041E-15, 13.28420471066059960 ) ) ;
#50 = DATE_TIME_ROLE ( 'creation_date' ) ;
#51 = SECURITY_CLASSIFICATION_LEVEL ( 'unclassified' ) ;
#52 = MECHANICAL_CONTEXT ( 'NONE', #152, 'mechanical' ) ;
#53 = PERSON_AND_ORGANIZATION ( #164, #160 ) ;
#54 = AXIS2_PLACEMENT_3D ( 'NONE', #62, #212, #59 ) ;
#55 = AXIS2_PLACEMENT_3D ( 'NONE', #17, #186, #16 ) ;
#56 = CARTESIAN_POINT ( 'NONE',  ( 7.878930741175916378E-16, -2.763556890749940211E-17, 0.2256615452450483339 ) ) ;
#57 = EDGE_CURVE ( 'NONE', #61, #61, #130, .T. ) ;
#58 = CARTESIAN_POINT ( 'NONE',  ( 4.638155284864352839E-14, -1.633680226746447041E-15, 13.28420471066059960 ) ) ;
#59 = DIRECTION ( 'NONE',  ( 0.0000000000000000000, 1.000000000000000000, 0.0000000000000000000 ) ) ;
#60 = EDGE_CURVE ( 'NONE', #29, #29, #209, .T. ) ;
#61 = VERTEX_POINT ( 'NONE', #200 ) ;
#62 = CARTESIAN_POINT ( 'NONE',  ( 1.316288464743861212E-13, -4.616918432785521081E-15, 37.69999999999999574 ) ) ;
#63 = CALENDAR_DATE ( 2021, 28, 10 ) ;
#64 = CONICAL_SURFACE ( 'NONE', #39, 1.199999999999999956, 0.7853981633974453924 ) ;
#65 = DATE_AND_TIME ( #63, #210 ) ;
#66 = PRODUCT ( '962914', '962914', '', ( #52 ) ) ;
#67 = CARTESIAN_POINT ( 'NONE',  ( 4.638155284864352839E-14, 1.499999999999996891, 13.28420471066059960 ) ) ;
#68 = APPROVAL_PERSON_ORGANIZATION ( #185, #93, #96 ) ;
#69 = EDGE_LOOP ( 'NONE', ( #4 ) ) ;
#70 = EDGE_CURVE ( 'NONE', #91, #91, #169, .T. ) ;
#71 = PLANE ( 'NONE',  #147 ) ;
#72 = AXIS2_PLACEMENT_3D ( 'NONE', #137, #92, #44 ) ;
#73 = DIRECTION ( 'NONE',  ( 3.491481338843133355E-15, -1.229791517316362731E-16, 1.000000000000000000 ) ) ;
#74 = DIRECTION ( 'NONE',  ( -3.491481338843133355E-15, 1.229791517316362731E-16, -1.000000000000000000 ) ) ;
#75 = DIRECTION ( 'NONE',  ( 3.491481338843133355E-15, -1.224646799147353207E-16, 1.000000000000000000 ) ) ;
#76 =( GEOMETRIC_REPRESENTATION_CONTEXT ( 3 ) GLOBAL_UNCERTAINTY_ASSIGNED_CONTEXT ( ( #168 ) ) GLOBAL_UNIT_ASSIGNED_CONTEXT ( ( #112, #149, #34 ) ) REPRESENTATION_CONTEXT ( 'NONE', 'WORKASPACE' ) );
#77 = DESIGN_CONTEXT ( 'detailed design', #132, 'design' ) ;
#78 = DATE_AND_TIME ( #206, #2 ) ;
#79 = PERSON_AND_ORGANIZATION ( #164, #160 ) ;
#80 = CONICAL_SURFACE ( 'NONE', #7, 1.499999999999995559, 1.221730476396026388 ) ;
#81 = APPROVAL_DATE_TIME ( #184, #93 ) ;
#82 = EDGE_LOOP ( 'NONE', ( #191 ) ) ;
#83 = CC_DESIGN_DATE_AND_TIME_ASSIGNMENT ( #65, #204, ( #194 ) ) ;
#84 = FACE_OUTER_BOUND ( 'NONE', #82, .T. ) ;
#85 = EDGE_LOOP ( 'NONE', ( #116 ) ) ;
#86 = CC_DESIGN_PERSON_AND_ORGANIZATION_ASSIGNMENT ( #79, #222, ( #194 ) ) ;
#87 = FACE_OUTER_BOUND ( 'NONE', #69, .T. ) ;
#88 = CIRCLE ( 'NONE', #115, 0.6199999999999999956 ) ;
#89 = DIRECTION ( 'NONE',  ( -5.135813185032644414E-31, -1.000000000000000000, -1.445602896647343601E-16 ) ) ;
#90 = DIRECTION ( 'NONE',  ( -4.275831445896958607E-31, -1.000000000000000000, -1.224646799147353207E-16 ) ) ;
#91 = VERTEX_POINT ( 'NONE', #177 ) ;
#92 = DIRECTION ( 'NONE',  ( -3.491481338843133355E-15, 1.224646799147353207E-16, -1.000000000000000000 ) ) ;
#93 = APPROVAL ( #97, 'UNSPECIFIED' ) ;
#94 = COORDINATED_UNIVERSAL_TIME_OFFSET ( 1, 0, .AHEAD. ) ;
#95 = PRODUCT_RELATED_PRODUCT_CATEGORY ( 'detail', '', ( #66 ) ) ;
#96 = APPROVAL_ROLE ( '' ) ;
#97 = APPROVAL_STATUS ( 'not_yet_approved' ) ;
#98 = CALENDAR_DATE ( 2021, 28, 10 ) ;
#99 = EDGE_CURVE ( 'NONE', #26, #26, #100, .T. ) ;
#100 = CIRCLE ( 'NONE', #42, 1.199999999999999956 ) ;
#101 = CALENDAR_DATE ( 2021, 28, 10 ) ;
#102 = FACE_BOUND ( 'NONE', #41, .T. ) ;
#103 = CARTESIAN_POINT ( 'NONE',  ( 3.491481338843133355E-14, 1.124819836996388827E-32, 10.00000000000000000 ) ) ;
#104 = DATE_AND_TIME ( #101, #15 ) ;
#105 = CARTESIAN_POINT ( 'NONE',  ( 3.491481338843133355E-14, -1.229791517316362583E-15, 10.00000000000000000 ) ) ;
#106 = DIRECTION ( 'NONE',  ( 4.275831445896958607E-31, 1.000000000000000000, 1.224646799147353207E-16 ) ) ;
#107 = CARTESIAN_POINT ( 'NONE',  ( 1.316288464743861212E-13, 1.499999999999995337, 37.69999999999999574 ) ) ;
#108 = PLANE ( 'NONE',  #190 ) ;
#109 = EDGE_CURVE ( 'NONE', #113, #113, #125, .T. ) ;
#110 = CLOSED_SHELL ( 'NONE', ( #195, #3, #188, #21, #123 ) ) ;
#111 = APPLICATION_PROTOCOL_DEFINITION ( 'international standard', 'config_control_design', 1994, #152 ) ;
#112 =( LENGTH_UNIT ( ) NAMED_UNIT ( * ) SI_UNIT ( .MILLI., .METRE. ) );
#113 = VERTEX_POINT ( 'NONE', #67 ) ;
#114 = EDGE_LOOP ( 'NONE', ( #5 ) ) ;
#115 = AXIS2_PLACEMENT_3D ( 'NONE', #201, #119, #120 ) ;
#116 = ORIENTED_EDGE ( 'NONE', *, *, #57, .F. ) ;
#117 = FACE_BOUND ( 'NONE', #114, .T. ) ;
#118 = CC_DESIGN_APPROVAL ( #189, ( #139 ) ) ;
#119 = DIRECTION ( 'NONE',  ( -3.491481338843133355E-15, 1.229791517316362731E-16, -1.000000000000000000 ) ) ;
#120 = DIRECTION ( 'NONE',  ( 0.0000000000000000000, 1.000000000000000000, 0.0000000000000000000 ) ) ;
#121 = FACE_OUTER_BOUND ( 'NONE', #151, .T. ) ;
#122 = FACE_OUTER_BOUND ( 'NONE', #207, .T. ) ;
#123 = ADVANCED_FACE ( 'NONE', ( #122 ), #108, .F. ) ;
#124 = PERSON_AND_ORGANIZATION ( #164, #160 ) ;
#125 = CIRCLE ( 'NONE', #156, 1.499999999999998668 ) ;
#126 = APPROVAL_PERSON_ORGANIZATION ( #148, #189, #144 ) ;
#127 = VERTEX_POINT ( 'NONE', #205 ) ;
#128 = EDGE_CURVE ( 'NONE', #127, #127, #88, .T. ) ;
#129 = PERSON_AND_ORGANIZATION ( #164, #160 ) ;
#130 = CIRCLE ( 'NONE', #138, 0.6199999999999999956 ) ;
#131 = EDGE_LOOP ( 'NONE', ( #192 ) ) ;
#132 = APPLICATION_CONTEXT ( 'configuration controlled 3d designs of mechanical parts and assemblies' ) ;
#133 = ORIENTED_EDGE ( 'NONE', *, *, #128, .T. ) ;
#134 = ADVANCED_FACE ( 'NONE', ( #141 ), #80, .T. ) ;
#135 = EDGE_LOOP ( 'NONE', ( #170 ) ) ;
#136 = ORIENTED_EDGE ( 'NONE', *, *, #70, .F. ) ;
#137 = CARTESIAN_POINT ( 'NONE',  ( 0.0000000000000000000, 0.0000000000000000000, 0.0000000000000000000 ) ) ;
#138 = AXIS2_PLACEMENT_3D ( 'NONE', #56, #47, #157 ) ;
#139 = PRODUCT_DEFINITION_FORMATION_WITH_SPECIFIED_SOURCE ( 'ANY', '', #66, .NOT_KNOWN. ) ;
#140 = CARTESIAN_POINT ( 'NONE',  ( 1.326762908760390423E-13, -4.653657836759941941E-15, 38.00000000000000000 ) ) ;
#141 = FACE_OUTER_BOUND ( 'NONE', #131, .T. ) ;
#142 = DIRECTION ( 'NONE',  ( -3.491481338843133355E-15, 1.224646799147353207E-16, -1.000000000000000000 ) ) ;
#143 = DIRECTION ( 'NONE',  ( 3.491481338843133355E-15, -1.224646799147353207E-16, 1.000000000000000000 ) ) ;
#144 = APPROVAL_ROLE ( '' ) ;
#145 = PERSON_AND_ORGANIZATION_ROLE ( 'design_supplier' ) ;
#146 = CC_DESIGN_PERSON_AND_ORGANIZATION_ASSIGNMENT ( #202, #162, ( #139 ) ) ;
#147 = AXIS2_PLACEMENT_3D ( 'NONE', #196, #142, #106 ) ;
#148 = PERSON_AND_ORGANIZATION ( #164, #160 ) ;
#149 =( NAMED_UNIT ( * ) PLANE_ANGLE_UNIT ( ) SI_UNIT ( $, .RADIAN. ) );
#150 = EDGE_LOOP ( 'NONE', ( #193 ) ) ;
#151 = EDGE_LOOP ( 'NONE', ( #136 ) ) ;
#152 = APPLICATION_CONTEXT ( 'configuration controlled 3d designs of mechanical parts and assemblies' ) ;
#153 = DIRECTION ( 'NONE',  ( -3.491481338843133355E-15, 1.224646799147353207E-16, -1.000000000000000000 ) ) ;
#154 = ORIENTED_EDGE ( 'NONE', *, *, #99, .T. ) ;
#155 = CARTESIAN_POINT ( 'NONE',  ( 1.326762908760390423E-13, 1.199999999999995293, 38.00000000000000000 ) ) ;
#156 = AXIS2_PLACEMENT_3D ( 'NONE', #49, #74, #27 ) ;
#157 = DIRECTION ( 'NONE',  ( -4.659507929969119254E-31, -1.000000000000000000, -1.311534886071174790E-16 ) ) ;
#158 = CYLINDRICAL_SURFACE ( 'NONE', #18, 0.6199999999999999956 ) ;
#159 = DIRECTION ( 'NONE',  ( 0.0000000000000000000, -1.000000000000000000, 0.0000000000000000000 ) ) ;
#160 = ORGANIZATION ( 'UNSPECIFIED', 'UNSPECIFIED', '' ) ;
#161 = APPROVAL ( #197, 'UNSPECIFIED' ) ;
#162 = PERSON_AND_ORGANIZATION_ROLE ( 'creator' ) ;
#163 = PRODUCT_DEFINITION_SHAPE ( 'NONE', 'NONE',  #176 ) ;
#164 = PERSON ( 'UNSPECIFIED', 'UNSPECIFIED', 'UNSPECIFIED', ('UNSPECIFIED'), ('UNSPECIFIED'), ('UNSPECIFIED') ) ;
#165 = COORDINATED_UNIVERSAL_TIME_OFFSET ( 1, 0, .AHEAD. ) ;
#166 = APPROVAL_DATE_TIME ( #78, #189 ) ;
#167 = COORDINATED_UNIVERSAL_TIME_OFFSET ( 1, 0, .AHEAD. ) ;
#168 = UNCERTAINTY_MEASURE_WITH_UNIT (LENGTH_MEASURE( 1.000000000000000082E-05 ), #112, 'distance_accuracy_value', 'NONE');
#169 = CIRCLE ( 'NONE', #203, 0.6199999999999999956 ) ;
#170 = ORIENTED_EDGE ( 'NONE', *, *, #70, .T. ) ;
#171 = SHAPE_DEFINITION_REPRESENTATION ( #163, #36 ) ;
#172 = CLOSED_SHELL ( 'NONE', ( #219, #38, #134 ) ) ;
#173 = ORIENTED_EDGE ( 'NONE', *, *, #99, .F. ) ;
#174 = MANIFOLD_SOLID_BREP ( 'Corps-Déplacer/Copier1[1]', #110 ) ;
#175 = EDGE_LOOP ( 'NONE', ( #40 ) ) ;
#176 = PRODUCT_DEFINITION ( 'UNKNOWN', '', #139, #77 ) ;
#177 = CARTESIAN_POINT ( 'NONE',  ( 3.491481338843133355E-14, 0.6199999999999987743, 10.00000000000000000 ) ) ;
#178 = DIRECTION ( 'NONE',  ( -3.491481338843133355E-15, 1.229791517316362731E-16, -1.000000000000000000 ) ) ;
#179 = CC_DESIGN_SECURITY_CLASSIFICATION ( #194, ( #139 ) ) ;
#180 = CYLINDRICAL_SURFACE ( 'NONE', #72, 1.499999999999998224 ) ;
#181 = DIRECTION ( 'NONE',  ( 0.0000000000000000000, 1.000000000000000000, 0.0000000000000000000 ) ) ;
#182 = CARTESIAN_POINT ( 'NONE',  ( 1.906192921252232855E-15, -6.686024735685322183E-17, 0.5459553513993090634 ) ) ;
#183 = AXIS2_PLACEMENT_3D ( 'NONE', #58, #73, #159 ) ;
#184 = DATE_AND_TIME ( #32, #1 ) ;
#185 = PERSON_AND_ORGANIZATION ( #164, #160 ) ;
#186 = DIRECTION ( 'NONE',  ( 0.0000000000000000000, 0.0000000000000000000, 1.000000000000000000 ) ) ;
#187 = APPROVAL_PERSON_ORGANIZATION ( #129, #161, #46 ) ;
#188 = ADVANCED_FACE ( 'NONE', ( #30 ), #71, .F. ) ;
#189 = APPROVAL ( #223, 'UNSPECIFIED' ) ;
#190 = AXIS2_PLACEMENT_3D ( 'NONE', #10, #143, #90 ) ;
#191 = ORIENTED_EDGE ( 'NONE', *, *, #60, .F. ) ;
#192 = ORIENTED_EDGE ( 'NONE', *, *, #57, .T. ) ;
#193 = ORIENTED_EDGE ( 'NONE', *, *, #60, .T. ) ;
#194 = SECURITY_CLASSIFICATION ( '', '', #51 ) ;
#195 = ADVANCED_FACE ( 'NONE', ( #6, #215 ), #180, .T. ) ;
#196 = CARTESIAN_POINT ( 'NONE',  ( 1.326762908760390423E-13, 8.998558695971077224E-33, 38.00000000000000000 ) ) ;
#197 = APPROVAL_STATUS ( 'not_yet_approved' ) ;
#198 = DIRECTION ( 'NONE',  ( -3.491481338843133355E-15, 1.224646799147353207E-16, -1.000000000000000000 ) ) ;
#199 = PLANE ( 'NONE',  #23 ) ;
#200 = CARTESIAN_POINT ( 'NONE',  ( 7.878930741175913420E-16, -0.6199999999999999956, 0.2256615452450482506 ) ) ;
#201 = CARTESIAN_POINT ( 'NONE',  ( 3.491481338843133355E-14, -1.229791517316362583E-15, 10.00000000000000000 ) ) ;
#202 = PERSON_AND_ORGANIZATION ( #164, #160 ) ;
#203 = AXIS2_PLACEMENT_3D ( 'NONE', #105, #178, #181 ) ;
#204 = DATE_TIME_ROLE ( 'classification_date' ) ;
#205 = CARTESIAN_POINT ( 'NONE',  ( 3.491481338843133355E-14, 0.6199999999999987743, 10.00000000000000000 ) ) ;
#206 = CALENDAR_DATE ( 2021, 28, 10 ) ;
#207 = EDGE_LOOP ( 'NONE', ( #133 ) ) ;
#208 = CC_DESIGN_PERSON_AND_ORGANIZATION_ASSIGNMENT ( #53, #31, ( #66 ) ) ;
#209 = CIRCLE ( 'NONE', #54, 1.499999999999999778 ) ;
#210 = LOCAL_TIME ( 11, 22, 59.00000000000000000, #220 ) ;
#211 = DIRECTION ( 'NONE',  ( 0.0000000000000000000, 1.000000000000000000, 0.0000000000000000000 ) ) ;
#212 = DIRECTION ( 'NONE',  ( -3.491481338843133355E-15, 1.224646799147353207E-16, -1.000000000000000000 ) ) ;
#213 = CC_DESIGN_APPROVAL ( #93, ( #176 ) ) ;
#214 = DIRECTION ( 'NONE',  ( 4.293794133377661370E-31, 1.000000000000000000, 1.229791517316362731E-16 ) ) ;
#215 = FACE_OUTER_BOUND ( 'NONE', #150, .T. ) ;
#216 = DIRECTION ( 'NONE',  ( 3.491481338843133355E-15, -1.224646799147353207E-16, 1.000000000000000000 ) ) ;
#217 = FACE_OUTER_BOUND ( 'NONE', #135, .T. ) ;
#218 = PERSON_AND_ORGANIZATION_ROLE ( 'creator' ) ;
#219 = ADVANCED_FACE ( 'NONE', ( #121 ), #199, .T. ) ;
#220 = COORDINATED_UNIVERSAL_TIME_OFFSET ( 1, 0, .AHEAD. ) ;
#221 = CONICAL_SURFACE ( 'NONE', #183, 1.499999999999998668, 0.2617993877991500740 ) ;
#222 = PERSON_AND_ORGANIZATION_ROLE ( 'classification_officer' ) ;
#223 = APPROVAL_STATUS ( 'not_yet_approved' ) ;
ENDSEC;
END-ISO-10303-21;
