ISO-10303-21;
HEADER;
FILE_DESCRIPTION (( 'STEP AP203' ),
    '1' );
FILE_NAME ('962913.step',
    '2021-10-28T09:22:58',
    ( '' ),
    ( '' ),
    'SwSTEP 2.0',
    'SolidWorks 2019',
    '' );
FILE_SCHEMA (( 'CONFIG_CONTROL_DESIGN' ));
ENDSEC;

DATA;
#1 = DIRECTION ( 'NONE',  ( 3.491481338843133355E-15, -1.224646799147353207E-16, 1.000000000000000000 ) ) ;
#2 = CC_DESIGN_SECURITY_CLASSIFICATION ( #14, ( #35 ) ) ;
#3 = DIRECTION ( 'NONE',  ( -3.491481338843133355E-15, 1.224646799147353207E-16, -1.000000000000000000 ) ) ;
#4 = COORDINATED_UNIVERSAL_TIME_OFFSET ( 1, 0, .AHEAD. ) ;
#5 = DATE_AND_TIME ( #194, #183 ) ;
#6 = APPROVAL_ROLE ( '' ) ;
#7 = AXIS2_PLACEMENT_3D ( 'NONE', #45, #136, #209 ) ;
#8 = ORIENTED_EDGE ( 'NONE', *, *, #56, .T. ) ;
#9 = LOCAL_TIME ( 11, 22, 58.00000000000000000, #124 ) ;
#10 = ADVANCED_FACE ( 'NONE', ( #204 ), #182, .F. ) ;
#11 = ORIENTED_EDGE ( 'NONE', *, *, #178, .T. ) ;
#12 = ADVANCED_FACE ( 'NONE', ( #67 ), #162, .T. ) ;
#13 = PLANE ( 'NONE',  #22 ) ;
#14 = SECURITY_CLASSIFICATION ( '', '', #71 ) ;
#15 = DIRECTION ( 'NONE',  ( -3.491481338843133355E-15, 1.224646799147353207E-16, -1.000000000000000000 ) ) ;
#16 = DIRECTION ( 'NONE',  ( -4.275831445896958607E-31, -1.000000000000000000, -1.224646799147353207E-16 ) ) ;
#17 = CARTESIAN_POINT ( 'NONE',  ( 1.316288464743861212E-13, -4.616918432785521081E-15, 37.69999999999999574 ) ) ;
#18 = CC_DESIGN_DATE_AND_TIME_ASSIGNMENT ( #5, #88, ( #55 ) ) ;
#19 = DIRECTION ( 'NONE',  ( 3.491481338843133355E-15, -1.229791517316362731E-16, 1.000000000000000000 ) ) ;
#20 = CALENDAR_DATE ( 2021, 28, 10 ) ;
#21 = APPROVAL_DATE_TIME ( #141, #106 ) ;
#22 = AXIS2_PLACEMENT_3D ( 'NONE', #60, #49, #16 ) ;
#23 = CARTESIAN_POINT ( 'NONE',  ( 0.0000000000000000000, 0.0000000000000000000, 0.0000000000000000000 ) ) ;
#24 = VERTEX_POINT ( 'NONE', #50 ) ;
#25 = PERSON_AND_ORGANIZATION_ROLE ( 'creator' ) ;
#26 = APPROVAL_PERSON_ORGANIZATION ( #142, #135, #87 ) ;
#27 = EDGE_LOOP ( 'NONE', ( #40 ) ) ;
#28 = CARTESIAN_POINT ( 'NONE',  ( 1.326762908760390423E-13, 8.998558695971077224E-33, 38.00000000000000000 ) ) ;
#29 = EDGE_LOOP ( 'NONE', ( #11 ) ) ;
#30 = DIRECTION ( 'NONE',  ( 0.0000000000000000000, -1.000000000000000000, 0.0000000000000000000 ) ) ;
#31 = CARTESIAN_POINT ( 'NONE',  ( 1.326762908760390423E-13, -4.653657836759941941E-15, 38.00000000000000000 ) ) ;
#32 = FACE_OUTER_BOUND ( 'NONE', #91, .T. ) ;
#33 = VERTEX_POINT ( 'NONE', #167 ) ;
#34 = FACE_BOUND ( 'NONE', #127, .T. ) ;
#35 = PRODUCT_DEFINITION_FORMATION_WITH_SPECIFIED_SOURCE ( 'ANY', '', #122, .NOT_KNOWN. ) ;
#36 = CALENDAR_DATE ( 2021, 28, 10 ) ;
#37 = PERSON_AND_ORGANIZATION_ROLE ( 'creator' ) ;
#38 = AXIS2_PLACEMENT_3D ( 'NONE', #28, #90, #149 ) ;
#39 = CLOSED_SHELL ( 'NONE', ( #100, #168, #12 ) ) ;
#40 = ORIENTED_EDGE ( 'NONE', *, *, #126, .T. ) ;
#41 = CIRCLE ( 'NONE', #197, 1.199999999999999956 ) ;
#42 = EDGE_LOOP ( 'NONE', ( #218 ) ) ;
#43 = DIRECTION ( 'NONE',  ( -4.697390108261550818E-31, -1.000000000000000000, -1.322197771323785883E-16 ) ) ;
#44 = DIRECTION ( 'NONE',  ( -3.491481338843133355E-15, 1.229791517316362731E-16, -1.000000000000000000 ) ) ;
#45 = CARTESIAN_POINT ( 'NONE',  ( 0.0000000000000000000, 0.0000000000000000000, 0.0000000000000000000 ) ) ;
#46 = LOCAL_TIME ( 11, 22, 58.00000000000000000, #193 ) ;
#47 = ADVANCED_FACE ( 'NONE', ( #113, #111 ), #81, .T. ) ;
#48 = DIRECTION ( 'NONE',  ( -3.491481338843133355E-15, 1.224646799147353207E-16, -1.000000000000000000 ) ) ;
#49 = DIRECTION ( 'NONE',  ( 3.491481338843133355E-15, -1.224646799147353207E-16, 1.000000000000000000 ) ) ;
#50 = CARTESIAN_POINT ( 'NONE',  ( 3.491481338843133355E-14, 0.6149999999999987699, 10.00000000000000000 ) ) ;
#51 = AXIS2_PLACEMENT_3D ( 'NONE', #93, #223, #43 ) ;
#52 = PERSON_AND_ORGANIZATION ( #89, #213 ) ;
#53 = APPROVAL_STATUS ( 'not_yet_approved' ) ;
#54 = PERSON_AND_ORGANIZATION_ROLE ( 'design_owner' ) ;
#55 = PRODUCT_DEFINITION ( 'UNKNOWN', '', #35, #63 ) ;
#56 = EDGE_CURVE ( 'NONE', #153, #153, #172, .T. ) ;
#57 = EDGE_LOOP ( 'NONE', ( #8 ) ) ;
#58 = ORIENTED_EDGE ( 'NONE', *, *, #221, .F. ) ;
#59 = CIRCLE ( 'NONE', #155, 1.499999999999998668 ) ;
#60 = CARTESIAN_POINT ( 'NONE',  ( 3.491481338843133355E-14, 1.124819836996388827E-32, 10.00000000000000000 ) ) ;
#61 = PLANE ( 'NONE',  #179 ) ;
#62 = APPLICATION_CONTEXT ( 'configuration controlled 3d designs of mechanical parts and assemblies' ) ;
#63 = DESIGN_CONTEXT ( 'detailed design', #62, 'design' ) ;
#64 = CARTESIAN_POINT ( 'NONE',  ( 4.644670477739473666E-14, 1.499999999999996891, 13.30286496469844337 ) ) ;
#65 = DIRECTION ( 'NONE',  ( 0.0000000000000000000, 1.000000000000000000, 0.0000000000000000000 ) ) ;
#66 = ADVANCED_BREP_SHAPE_REPRESENTATION ( '962913', ( #158, #161, #75 ), #118 ) ;
#67 = FACE_OUTER_BOUND ( 'NONE', #74, .T. ) ;
#68 = CC_DESIGN_APPROVAL ( #135, ( #14 ) ) ;
#69 = DIRECTION ( 'NONE',  ( 0.0000000000000000000, 0.0000000000000000000, 1.000000000000000000 ) ) ;
#70 = CC_DESIGN_PERSON_AND_ORGANIZATION_ASSIGNMENT ( #85, #25, ( #55 ) ) ;
#71 = SECURITY_CLASSIFICATION_LEVEL ( 'unclassified' ) ;
#72 = PERSON_AND_ORGANIZATION ( #89, #213 ) ;
#73 = CONICAL_SURFACE ( 'NONE', #82, 1.499999999999998668, 0.2617993877991500740 ) ;
#74 = EDGE_LOOP ( 'NONE', ( #184 ) ) ;
#75 = AXIS2_PLACEMENT_3D ( 'NONE', #23, #69, #175 ) ;
#76 = ORIENTED_EDGE ( 'NONE', *, *, #126, .F. ) ;
#77 = CC_DESIGN_PERSON_AND_ORGANIZATION_ASSIGNMENT ( #99, #138, ( #14 ) ) ;
#78 = AXIS2_PLACEMENT_3D ( 'NONE', #133, #206, #80 ) ;
#79 = DIRECTION ( 'NONE',  ( 3.491481338843133355E-15, -1.224646799147353207E-16, 1.000000000000000000 ) ) ;
#80 = DIRECTION ( 'NONE',  ( 0.0000000000000000000, 1.000000000000000000, 0.0000000000000000000 ) ) ;
#81 = CYLINDRICAL_SURFACE ( 'NONE', #150, 1.499999999999998224 ) ;
#82 = AXIS2_PLACEMENT_3D ( 'NONE', #151, #19, #30 ) ;
#83 = FACE_OUTER_BOUND ( 'NONE', #181, .T. ) ;
#84 = DATE_AND_TIME ( #20, #9 ) ;
#85 = PERSON_AND_ORGANIZATION ( #89, #213 ) ;
#86 = CIRCLE ( 'NONE', #220, 0.6149999999999999911 ) ;
#87 = APPROVAL_ROLE ( '' ) ;
#88 = DATE_TIME_ROLE ( 'creation_date' ) ;
#89 = PERSON ( 'UNSPECIFIED', 'UNSPECIFIED', 'UNSPECIFIED', ('UNSPECIFIED'), ('UNSPECIFIED'), ('UNSPECIFIED') ) ;
#90 = DIRECTION ( 'NONE',  ( -3.491481338843133355E-15, 1.224646799147353207E-16, -1.000000000000000000 ) ) ;
#91 = EDGE_LOOP ( 'NONE', ( #105 ) ) ;
#92 = DIRECTION ( 'NONE',  ( 0.0000000000000000000, 1.000000000000000000, 0.0000000000000000000 ) ) ;
#93 = CARTESIAN_POINT ( 'NONE',  ( 7.815390977134174823E-16, -2.741270141630988887E-17, 0.2238416940737172900 ) ) ;
#94 = CARTESIAN_POINT ( 'NONE',  ( 3.491481338843133355E-14, 1.124819836996388827E-32, 10.00000000000000000 ) ) ;
#95 = VERTEX_POINT ( 'NONE', #64 ) ;
#96 = DIRECTION ( 'NONE',  ( -5.135813185032644414E-31, -1.000000000000000000, -1.445602896647343601E-16 ) ) ;
#97 = CC_DESIGN_APPROVAL ( #215, ( #35 ) ) ;
#98 = CALENDAR_DATE ( 2021, 28, 10 ) ;
#99 = PERSON_AND_ORGANIZATION ( #89, #213 ) ;
#100 = ADVANCED_FACE ( 'NONE', ( #32 ), #61, .T. ) ;
#101 = LOCAL_TIME ( 11, 22, 58.00000000000000000, #4 ) ;
#102 = APPROVAL_STATUS ( 'not_yet_approved' ) ;
#103 = PRODUCT_RELATED_PRODUCT_CATEGORY ( 'detail', '', ( #122 ) ) ;
#104 = ORIENTED_EDGE ( 'NONE', *, *, #180, .T. ) ;
#105 = ORIENTED_EDGE ( 'NONE', *, *, #180, .F. ) ;
#106 = APPROVAL ( #177, 'UNSPECIFIED' ) ;
#107 = EDGE_LOOP ( 'NONE', ( #146 ) ) ;
#108 =( NAMED_UNIT ( * ) PLANE_ANGLE_UNIT ( ) SI_UNIT ( $, .RADIAN. ) );
#109 = APPROVAL_PERSON_ORGANIZATION ( #52, #215, #198 ) ;
#110 = EDGE_LOOP ( 'NONE', ( #216 ) ) ;
#111 = FACE_OUTER_BOUND ( 'NONE', #57, .T. ) ;
#112 =( NAMED_UNIT ( * ) SI_UNIT ( $, .STERADIAN. ) SOLID_ANGLE_UNIT ( ) );
#113 = FACE_OUTER_BOUND ( 'NONE', #42, .T. ) ;
#114 = CC_DESIGN_PERSON_AND_ORGANIZATION_ASSIGNMENT ( #144, #121, ( #35 ) ) ;
#115 = FACE_OUTER_BOUND ( 'NONE', #202, .T. ) ;
#116 = VERTEX_POINT ( 'NONE', #190 ) ;
#117 = DIRECTION ( 'NONE',  ( 0.0000000000000000000, 1.000000000000000000, 0.0000000000000000000 ) ) ;
#118 =( GEOMETRIC_REPRESENTATION_CONTEXT ( 3 ) GLOBAL_UNCERTAINTY_ASSIGNED_CONTEXT ( ( #171 ) ) GLOBAL_UNIT_ASSIGNED_CONTEXT ( ( #163, #108, #112 ) ) REPRESENTATION_CONTEXT ( 'NONE', 'WORKASPACE' ) );
#119 = PERSON_AND_ORGANIZATION ( #89, #213 ) ;
#120 = DATE_AND_TIME ( #36, #101 ) ;
#121 = PERSON_AND_ORGANIZATION_ROLE ( 'design_supplier' ) ;
#122 = PRODUCT ( '962913', '962913', '', ( #140 ) ) ;
#123 = APPLICATION_PROTOCOL_DEFINITION ( 'international standard', 'config_control_design', 1994, #62 ) ;
#124 = COORDINATED_UNIVERSAL_TIME_OFFSET ( 1, 0, .AHEAD. ) ;
#125 = EDGE_LOOP ( 'NONE', ( #76 ) ) ;
#126 = EDGE_CURVE ( 'NONE', #116, #116, #41, .T. ) ;
#127 = EDGE_LOOP ( 'NONE', ( #58 ) ) ;
#128 = DIRECTION ( 'NONE',  ( -4.275831445896958607E-31, -1.000000000000000000, -1.224646799147353207E-16 ) ) ;
#129 = PRODUCT_DEFINITION_SHAPE ( 'NONE', 'NONE',  #55 ) ;
#130 = DIRECTION ( 'NONE',  ( 0.0000000000000000000, 1.000000000000000000, 0.0000000000000000000 ) ) ;
#131 = CARTESIAN_POINT ( 'NONE',  ( 1.906192921252232855E-15, -6.686024735685322183E-17, 0.5459553513993090634 ) ) ;
#132 = LOCAL_TIME ( 11, 22, 58.00000000000000000, #154 ) ;
#133 = CARTESIAN_POINT ( 'NONE',  ( 3.491481338843133355E-14, -1.229791517316362583E-15, 10.00000000000000000 ) ) ;
#134 = ADVANCED_FACE ( 'NONE', ( #207, #189 ), #217, .T. ) ;
#135 = APPROVAL ( #102, 'UNSPECIFIED' ) ;
#136 = DIRECTION ( 'NONE',  ( -3.491481338843133355E-15, 1.229791517316362731E-16, -1.000000000000000000 ) ) ;
#137 = VERTEX_POINT ( 'NONE', #176 ) ;
#138 = PERSON_AND_ORGANIZATION_ROLE ( 'classification_officer' ) ;
#139 = CIRCLE ( 'NONE', #51, 0.6149999999999999911 ) ;
#140 = MECHANICAL_CONTEXT ( 'NONE', #201, 'mechanical' ) ;
#141 = DATE_AND_TIME ( #98, #46 ) ;
#142 = PERSON_AND_ORGANIZATION ( #89, #213 ) ;
#143 = AXIS2_PLACEMENT_3D ( 'NONE', #17, #186, #92 ) ;
#144 = PERSON_AND_ORGANIZATION ( #89, #213 ) ;
#145 = SHAPE_DEFINITION_REPRESENTATION ( #129, #66 ) ;
#146 = ORIENTED_EDGE ( 'NONE', *, *, #160, .F. ) ;
#147 = ADVANCED_FACE ( 'NONE', ( #34, #173 ), #73, .T. ) ;
#148 = APPROVAL_PERSON_ORGANIZATION ( #119, #106, #6 ) ;
#149 = DIRECTION ( 'NONE',  ( 4.275831445896958607E-31, 1.000000000000000000, 1.224646799147353207E-16 ) ) ;
#150 = AXIS2_PLACEMENT_3D ( 'NONE', #187, #15, #205 ) ;
#151 = CARTESIAN_POINT ( 'NONE',  ( 4.644670477739473666E-14, -1.635975048959118067E-15, 13.30286496469844337 ) ) ;
#152 = CARTESIAN_POINT ( 'NONE',  ( 1.326762908760390423E-13, -4.653657836759941941E-15, 38.00000000000000000 ) ) ;
#153 = VERTEX_POINT ( 'NONE', #191 ) ;
#154 = COORDINATED_UNIVERSAL_TIME_OFFSET ( 1, 0, .AHEAD. ) ;
#155 = AXIS2_PLACEMENT_3D ( 'NONE', #222, #44, #65 ) ;
#156 = CALENDAR_DATE ( 2021, 28, 10 ) ;
#157 = APPROVAL_DATE_TIME ( #120, #215 ) ;
#158 = MANIFOLD_SOLID_BREP ( 'Corps-Déplacer/Copier1[1]', #159 ) ;
#159 = CLOSED_SHELL ( 'NONE', ( #47, #134, #10, #147, #200 ) ) ;
#160 = EDGE_CURVE ( 'NONE', #33, #33, #139, .T. ) ;
#161 = MANIFOLD_SOLID_BREP ( 'Corps-Déplacer/Copier1[2]', #39 ) ;
#162 = CONICAL_SURFACE ( 'NONE', #188, 1.499999999999995559, 1.221730476396026388 ) ;
#163 =( LENGTH_UNIT ( ) NAMED_UNIT ( * ) SI_UNIT ( .MILLI., .METRE. ) );
#164 = ORIENTED_EDGE ( 'NONE', *, *, #221, .T. ) ;
#165 = FACE_OUTER_BOUND ( 'NONE', #107, .T. ) ;
#166 = AXIS2_PLACEMENT_3D ( 'NONE', #152, #3, #170 ) ;
#167 = CARTESIAN_POINT ( 'NONE',  ( 7.815390977134172851E-16, -0.6149999999999999911, 0.2238416940737172067 ) ) ;
#168 = ADVANCED_FACE ( 'NONE', ( #83, #165 ), #169, .T. ) ;
#169 = CYLINDRICAL_SURFACE ( 'NONE', #7, 0.6149999999999999911 ) ;
#170 = DIRECTION ( 'NONE',  ( 0.0000000000000000000, 1.000000000000000000, 0.0000000000000000000 ) ) ;
#171 = UNCERTAINTY_MEASURE_WITH_UNIT (LENGTH_MEASURE( 1.000000000000000082E-05 ), #163, 'distance_accuracy_value', 'NONE');
#172 = CIRCLE ( 'NONE', #143, 1.499999999999999778 ) ;
#173 = FACE_OUTER_BOUND ( 'NONE', #29, .T. ) ;
#174 = PERSON_AND_ORGANIZATION ( #89, #213 ) ;
#175 = DIRECTION ( 'NONE',  ( 1.000000000000000000, 0.0000000000000000000, 0.0000000000000000000 ) ) ;
#176 = CARTESIAN_POINT ( 'NONE',  ( 3.491481338843133355E-14, 0.6149999999999987699, 10.00000000000000000 ) ) ;
#177 = APPROVAL_STATUS ( 'not_yet_approved' ) ;
#178 = EDGE_CURVE ( 'NONE', #95, #95, #59, .T. ) ;
#179 = AXIS2_PLACEMENT_3D ( 'NONE', #94, #1, #128 ) ;
#180 = EDGE_CURVE ( 'NONE', #137, #137, #192, .T. ) ;
#181 = EDGE_LOOP ( 'NONE', ( #104 ) ) ;
#182 = PLANE ( 'NONE',  #38 ) ;
#183 = LOCAL_TIME ( 11, 22, 58.00000000000000000, #211 ) ;
#184 = ORIENTED_EDGE ( 'NONE', *, *, #160, .T. ) ;
#185 = CC_DESIGN_DATE_AND_TIME_ASSIGNMENT ( #84, #195, ( #14 ) ) ;
#186 = DIRECTION ( 'NONE',  ( -3.491481338843133355E-15, 1.224646799147353207E-16, -1.000000000000000000 ) ) ;
#187 = CARTESIAN_POINT ( 'NONE',  ( 0.0000000000000000000, 0.0000000000000000000, 0.0000000000000000000 ) ) ;
#188 = AXIS2_PLACEMENT_3D ( 'NONE', #131, #79, #96 ) ;
#189 = FACE_BOUND ( 'NONE', #27, .T. ) ;
#190 = CARTESIAN_POINT ( 'NONE',  ( 1.326762908760390423E-13, 1.199999999999995293, 38.00000000000000000 ) ) ;
#191 = CARTESIAN_POINT ( 'NONE',  ( 1.316288464743861212E-13, 1.499999999999995337, 37.69999999999999574 ) ) ;
#192 = CIRCLE ( 'NONE', #78, 0.6149999999999999911 ) ;
#193 = COORDINATED_UNIVERSAL_TIME_OFFSET ( 1, 0, .AHEAD. ) ;
#194 = CALENDAR_DATE ( 2021, 28, 10 ) ;
#195 = DATE_TIME_ROLE ( 'classification_date' ) ;
#196 = CC_DESIGN_PERSON_AND_ORGANIZATION_ASSIGNMENT ( #174, #54, ( #122 ) ) ;
#197 = AXIS2_PLACEMENT_3D ( 'NONE', #31, #48, #117 ) ;
#198 = APPROVAL_ROLE ( '' ) ;
#199 = APPLICATION_PROTOCOL_DEFINITION ( 'international standard', 'config_control_design', 1994, #201 ) ;
#200 = ADVANCED_FACE ( 'NONE', ( #115 ), #13, .F. ) ;
#201 = APPLICATION_CONTEXT ( 'configuration controlled 3d designs of mechanical parts and assemblies' ) ;
#202 = EDGE_LOOP ( 'NONE', ( #164 ) ) ;
#203 = CC_DESIGN_PERSON_AND_ORGANIZATION_ASSIGNMENT ( #72, #37, ( #35 ) ) ;
#204 = FACE_OUTER_BOUND ( 'NONE', #125, .T. ) ;
#205 = DIRECTION ( 'NONE',  ( 4.275831445896958607E-31, 1.000000000000000000, 1.224646799147353207E-16 ) ) ;
#206 = DIRECTION ( 'NONE',  ( -3.491481338843133355E-15, 1.229791517316362731E-16, -1.000000000000000000 ) ) ;
#207 = FACE_OUTER_BOUND ( 'NONE', #110, .T. ) ;
#208 = DIRECTION ( 'NONE',  ( -3.491481338843133355E-15, 1.229791517316362731E-16, -1.000000000000000000 ) ) ;
#209 = DIRECTION ( 'NONE',  ( 4.293794133377662246E-31, 1.000000000000000000, 1.229791517316362731E-16 ) ) ;
#210 = CC_DESIGN_APPROVAL ( #106, ( #55 ) ) ;
#211 = COORDINATED_UNIVERSAL_TIME_OFFSET ( 1, 0, .AHEAD. ) ;
#212 = DATE_AND_TIME ( #156, #132 ) ;
#213 = ORGANIZATION ( 'UNSPECIFIED', 'UNSPECIFIED', '' ) ;
#214 = APPROVAL_DATE_TIME ( #212, #135 ) ;
#215 = APPROVAL ( #53, 'UNSPECIFIED' ) ;
#216 = ORIENTED_EDGE ( 'NONE', *, *, #56, .F. ) ;
#217 = CONICAL_SURFACE ( 'NONE', #166, 1.199999999999999956, 0.7853981633974453924 ) ;
#218 = ORIENTED_EDGE ( 'NONE', *, *, #178, .F. ) ;
#219 = CARTESIAN_POINT ( 'NONE',  ( 3.491481338843133355E-14, -1.229791517316362583E-15, 10.00000000000000000 ) ) ;
#220 = AXIS2_PLACEMENT_3D ( 'NONE', #219, #208, #130 ) ;
#221 = EDGE_CURVE ( 'NONE', #24, #24, #86, .T. ) ;
#222 = CARTESIAN_POINT ( 'NONE',  ( 4.644670477739473666E-14, -1.635975048959118067E-15, 13.30286496469844337 ) ) ;
#223 = DIRECTION ( 'NONE',  ( -3.491481338843133355E-15, 1.224646799147353207E-16, -1.000000000000000000 ) ) ;
ENDSEC;
END-ISO-10303-21;
