ISO-10303-21;
HEADER;
FILE_DESCRIPTION (( 'STEP AP203' ),
    '1' );
FILE_NAME ('962912.step',
    '2021-10-28T09:22:57',
    ( '' ),
    ( '' ),
    'SwSTEP 2.0',
    'SolidWorks 2019',
    '' );
FILE_SCHEMA (( 'CONFIG_CONTROL_DESIGN' ));
ENDSEC;

DATA;
#1 = EDGE_LOOP ( 'NONE', ( #120 ) ) ;
#2 = ORIENTED_EDGE ( 'NONE', *, *, #152, .T. ) ;
#3 = PLANE ( 'NONE',  #92 ) ;
#4 = VERTEX_POINT ( 'NONE', #27 ) ;
#5 = AXIS2_PLACEMENT_3D ( 'NONE', #170, #125, #61 ) ;
#6 = APPLICATION_CONTEXT ( 'configuration controlled 3d designs of mechanical parts and assemblies' ) ;
#7 = ADVANCED_FACE ( 'NONE', ( #36 ), #102, .T. ) ;
#8 = FACE_OUTER_BOUND ( 'NONE', #59, .T. ) ;
#9 = CYLINDRICAL_SURFACE ( 'NONE', #5, 1.499999999999998224 ) ;
#10 = CC_DESIGN_APPROVAL ( #166, ( #148 ) ) ;
#11 = PERSON_AND_ORGANIZATION ( #153, #96 ) ;
#12 = APPROVAL_DATE_TIME ( #29, #132 ) ;
#13 = PERSON_AND_ORGANIZATION ( #153, #96 ) ;
#14 = LOCAL_TIME ( 11, 22, 57.00000000000000000, #180 ) ;
#15 = CARTESIAN_POINT ( 'NONE',  ( 1.326762908760390423E-13, 1.199999999999995293, 38.00000000000000000 ) ) ;
#16 = ORIENTED_EDGE ( 'NONE', *, *, #191, .T. ) ;
#17 = AXIS2_PLACEMENT_3D ( 'NONE', #142, #189, #156 ) ;
#18 = ORIENTED_EDGE ( 'NONE', *, *, #71, .F. ) ;
#19 = LOCAL_TIME ( 11, 22, 57.00000000000000000, #70 ) ;
#20 = CC_DESIGN_PERSON_AND_ORGANIZATION_ASSIGNMENT ( #13, #82, ( #26 ) ) ;
#21 = PLANE ( 'NONE',  #72 ) ;
#22 = DIRECTION ( 'NONE',  ( -3.491481338843133355E-15, 1.224646799147353207E-16, -1.000000000000000000 ) ) ;
#23 = DIRECTION ( 'NONE',  ( 3.491481338843133355E-15, -1.224646799147353207E-16, 1.000000000000000000 ) ) ;
#24 = ADVANCED_FACE ( 'NONE', ( #38, #109 ), #67, .T. ) ;
#25 = MANIFOLD_SOLID_BREP ( 'Corps-Déplacer/Copier1[1]', #145 ) ;
#26 = PRODUCT_DEFINITION_FORMATION_WITH_SPECIFIED_SOURCE ( 'ANY', '', #57, .NOT_KNOWN. ) ;
#27 = CARTESIAN_POINT ( 'NONE',  ( 1.316288464743861212E-13, 1.499999999999995337, 37.69999999999999574 ) ) ;
#28 = FACE_OUTER_BOUND ( 'NONE', #86, .T. ) ;
#29 = DATE_AND_TIME ( #100, #190 ) ;
#30 = PERSON_AND_ORGANIZATION ( #153, #96 ) ;
#31 = APPROVAL_STATUS ( 'not_yet_approved' ) ;
#32 = CALENDAR_DATE ( 2021, 28, 10 ) ;
#33 = CIRCLE ( 'NONE', #182, 0.6099999999999999867 ) ;
#34 = PERSON_AND_ORGANIZATION ( #153, #96 ) ;
#35 = PRODUCT_DEFINITION_SHAPE ( 'NONE', 'NONE',  #187 ) ;
#36 = FACE_OUTER_BOUND ( 'NONE', #168, .T. ) ;
#37 = ADVANCED_FACE ( 'NONE', ( #43 ), #62, .F. ) ;
#38 = FACE_BOUND ( 'NONE', #103, .T. ) ;
#39 = EDGE_LOOP ( 'NONE', ( #41 ) ) ;
#40 = AXIS2_PLACEMENT_3D ( 'NONE', #46, #210, #143 ) ;
#41 = ORIENTED_EDGE ( 'NONE', *, *, #78, .T. ) ;
#42 = CC_DESIGN_DATE_AND_TIME_ASSIGNMENT ( #80, #218, ( #187 ) ) ;
#43 = FACE_OUTER_BOUND ( 'NONE', #188, .T. ) ;
#44 = AXIS2_PLACEMENT_3D ( 'NONE', #90, #112, #216 ) ;
#45 = CARTESIAN_POINT ( 'NONE',  ( 4.651185670614593231E-14, -1.638269871171788897E-15, 13.32152521873628714 ) ) ;
#46 = CARTESIAN_POINT ( 'NONE',  ( 1.316288464743861212E-13, -4.616918432785521081E-15, 37.69999999999999574 ) ) ;
#47 = DIRECTION ( 'NONE',  ( 0.0000000000000000000, 1.000000000000000000, 0.0000000000000000000 ) ) ;
#48 =( GEOMETRIC_REPRESENTATION_CONTEXT ( 3 ) GLOBAL_UNCERTAINTY_ASSIGNED_CONTEXT ( ( #204 ) ) GLOBAL_UNIT_ASSIGNED_CONTEXT ( ( #162, #200, #79 ) ) REPRESENTATION_CONTEXT ( 'NONE', 'WORKASPACE' ) );
#49 = CARTESIAN_POINT ( 'NONE',  ( 7.751851213092434254E-16, -2.718983392512037870E-17, 0.2220218429023862738 ) ) ;
#50 = CARTESIAN_POINT ( 'NONE',  ( 4.651185670614593231E-14, 1.499999999999996891, 13.32152521873628714 ) ) ;
#51 = APPLICATION_CONTEXT ( 'configuration controlled 3d designs of mechanical parts and assemblies' ) ;
#52 = PERSON_AND_ORGANIZATION ( #153, #96 ) ;
#53 = APPLICATION_PROTOCOL_DEFINITION ( 'international standard', 'config_control_design', 1994, #6 ) ;
#54 = CLOSED_SHELL ( 'NONE', ( #101, #134, #7 ) ) ;
#55 = ORIENTED_EDGE ( 'NONE', *, *, #211, .T. ) ;
#56 = ORIENTED_EDGE ( 'NONE', *, *, #71, .T. ) ;
#57 = PRODUCT ( '962912', '962912', '', ( #147 ) ) ;
#58 = APPROVAL_ROLE ( '' ) ;
#59 = EDGE_LOOP ( 'NONE', ( #167 ) ) ;
#60 = DIRECTION ( 'NONE',  ( -3.491481338843133355E-15, 1.224646799147353207E-16, -1.000000000000000000 ) ) ;
#61 = DIRECTION ( 'NONE',  ( 4.275831445896958607E-31, 1.000000000000000000, 1.224646799147353207E-16 ) ) ;
#62 = PLANE ( 'NONE',  #195 ) ;
#63 = CARTESIAN_POINT ( 'NONE',  ( 3.491481338843133355E-14, -1.229791517316362583E-15, 10.00000000000000000 ) ) ;
#64 = DIRECTION ( 'NONE',  ( 0.0000000000000000000, -1.000000000000000000, 0.0000000000000000000 ) ) ;
#65 = ADVANCED_FACE ( 'NONE', ( #107, #161 ), #201, .T. ) ;
#66 = DATE_AND_TIME ( #127, #19 ) ;
#67 = CONICAL_SURFACE ( 'NONE', #75, 1.499999999999998668, 0.2617993877991501850 ) ;
#68 = ADVANCED_FACE ( 'NONE', ( #8, #77 ), #9, .T. ) ;
#69 = APPROVAL_STATUS ( 'not_yet_approved' ) ;
#70 = COORDINATED_UNIVERSAL_TIME_OFFSET ( 1, 0, .AHEAD. ) ;
#71 = EDGE_CURVE ( 'NONE', #110, #110, #185, .T. ) ;
#72 = AXIS2_PLACEMENT_3D ( 'NONE', #157, #22, #89 ) ;
#73 = DIRECTION ( 'NONE',  ( -3.491481338843133355E-15, 1.229791517316362731E-16, -1.000000000000000000 ) ) ;
#74 = DIRECTION ( 'NONE',  ( 4.293794133377662246E-31, 1.000000000000000000, 1.229791517316362731E-16 ) ) ;
#75 = AXIS2_PLACEMENT_3D ( 'NONE', #215, #214, #64 ) ;
#76 = CYLINDRICAL_SURFACE ( 'NONE', #208, 0.6099999999999999867 ) ;
#77 = FACE_OUTER_BOUND ( 'NONE', #183, .T. ) ;
#78 = EDGE_CURVE ( 'NONE', #174, #174, #113, .T. ) ;
#79 =( NAMED_UNIT ( * ) SI_UNIT ( $, .STERADIAN. ) SOLID_ANGLE_UNIT ( ) );
#80 = DATE_AND_TIME ( #178, #117 ) ;
#81 = DIRECTION ( 'NONE',  ( 0.0000000000000000000, 0.0000000000000000000, 1.000000000000000000 ) ) ;
#82 = PERSON_AND_ORGANIZATION_ROLE ( 'design_supplier' ) ;
#83 = CC_DESIGN_PERSON_AND_ORGANIZATION_ASSIGNMENT ( #52, #114, ( #148 ) ) ;
#84 = PERSON_AND_ORGANIZATION ( #153, #96 ) ;
#85 = ORIENTED_EDGE ( 'NONE', *, *, #152, .F. ) ;
#86 = EDGE_LOOP ( 'NONE', ( #105 ) ) ;
#87 = CC_DESIGN_PERSON_AND_ORGANIZATION_ASSIGNMENT ( #84, #198, ( #57 ) ) ;
#88 = DESIGN_CONTEXT ( 'detailed design', #51, 'design' ) ;
#89 = DIRECTION ( 'NONE',  ( 4.275831445896958607E-31, 1.000000000000000000, 1.224646799147353207E-16 ) ) ;
#90 = CARTESIAN_POINT ( 'NONE',  ( 1.326762908760390423E-13, -4.653657836759941941E-15, 38.00000000000000000 ) ) ;
#91 = CARTESIAN_POINT ( 'NONE',  ( 3.491481338843133355E-14, -1.229791517316362583E-15, 10.00000000000000000 ) ) ;
#92 = AXIS2_PLACEMENT_3D ( 'NONE', #193, #23, #122 ) ;
#93 = VERTEX_POINT ( 'NONE', #160 ) ;
#94 = FACE_OUTER_BOUND ( 'NONE', #151, .T. ) ;
#95 = MANIFOLD_SOLID_BREP ( 'Corps-Déplacer/Copier1[2]', #54 ) ;
#96 = ORGANIZATION ( 'UNSPECIFIED', 'UNSPECIFIED', '' ) ;
#97 = APPROVAL_ROLE ( '' ) ;
#98 = COORDINATED_UNIVERSAL_TIME_OFFSET ( 1, 0, .AHEAD. ) ;
#99 = DATE_AND_TIME ( #32, #14 ) ;
#100 = CALENDAR_DATE ( 2021, 28, 10 ) ;
#101 = ADVANCED_FACE ( 'NONE', ( #94 ), #3, .T. ) ;
#102 = CONICAL_SURFACE ( 'NONE', #213, 1.499999999999995559, 1.221730476396026388 ) ;
#103 = EDGE_LOOP ( 'NONE', ( #18 ) ) ;
#104 = APPROVAL_DATE_TIME ( #186, #166 ) ;
#105 = ORIENTED_EDGE ( 'NONE', *, *, #191, .F. ) ;
#106 = CC_DESIGN_APPROVAL ( #221, ( #26 ) ) ;
#107 = FACE_OUTER_BOUND ( 'NONE', #1, .T. ) ;
#108 = CARTESIAN_POINT ( 'NONE',  ( 3.491481338843133355E-14, 0.6099999999999987654, 10.00000000000000000 ) ) ;
#109 = FACE_OUTER_BOUND ( 'NONE', #136, .T. ) ;
#110 = VERTEX_POINT ( 'NONE', #141 ) ;
#111 = APPROVAL_PERSON_ORGANIZATION ( #146, #132, #97 ) ;
#112 = DIRECTION ( 'NONE',  ( -3.491481338843133355E-15, 1.224646799147353207E-16, -1.000000000000000000 ) ) ;
#113 = CIRCLE ( 'NONE', #173, 0.6099999999999999867 ) ;
#114 = PERSON_AND_ORGANIZATION_ROLE ( 'classification_officer' ) ;
#115 = DATE_TIME_ROLE ( 'classification_date' ) ;
#116 = EDGE_CURVE ( 'NONE', #4, #4, #169, .T. ) ;
#117 = LOCAL_TIME ( 11, 22, 57.00000000000000000, #130 ) ;
#118 = DIRECTION ( 'NONE',  ( 3.491481338843133355E-15, -1.224646799147353207E-16, 1.000000000000000000 ) ) ;
#119 = ADVANCED_BREP_SHAPE_REPRESENTATION ( '962912', ( #25, #95, #154 ), #48 ) ;
#120 = ORIENTED_EDGE ( 'NONE', *, *, #116, .F. ) ;
#121 = CARTESIAN_POINT ( 'NONE',  ( 0.0000000000000000000, 0.0000000000000000000, 0.0000000000000000000 ) ) ;
#122 = DIRECTION ( 'NONE',  ( -4.275831445896958607E-31, -1.000000000000000000, -1.224646799147353207E-16 ) ) ;
#123 = DIRECTION ( 'NONE',  ( -3.491481338843133355E-15, 1.229791517316362731E-16, -1.000000000000000000 ) ) ;
#124 = FACE_OUTER_BOUND ( 'NONE', #209, .T. ) ;
#125 = DIRECTION ( 'NONE',  ( -3.491481338843133355E-15, 1.224646799147353207E-16, -1.000000000000000000 ) ) ;
#126 = VERTEX_POINT ( 'NONE', #50 ) ;
#127 = CALENDAR_DATE ( 2021, 28, 10 ) ;
#128 = PERSON_AND_ORGANIZATION_ROLE ( 'creator' ) ;
#129 = AXIS2_PLACEMENT_3D ( 'NONE', #63, #123, #196 ) ;
#130 = COORDINATED_UNIVERSAL_TIME_OFFSET ( 1, 0, .AHEAD. ) ;
#131 = PERSON_AND_ORGANIZATION_ROLE ( 'creator' ) ;
#132 = APPROVAL ( #69, 'UNSPECIFIED' ) ;
#133 = CC_DESIGN_SECURITY_CLASSIFICATION ( #148, ( #26 ) ) ;
#134 = ADVANCED_FACE ( 'NONE', ( #159, #124 ), #76, .T. ) ;
#135 = COORDINATED_UNIVERSAL_TIME_OFFSET ( 1, 0, .AHEAD. ) ;
#136 = EDGE_LOOP ( 'NONE', ( #55 ) ) ;
#137 = ORIENTED_EDGE ( 'NONE', *, *, #78, .F. ) ;
#138 = APPROVAL_PERSON_ORGANIZATION ( #34, #166, #58 ) ;
#139 = CALENDAR_DATE ( 2021, 28, 10 ) ;
#140 = DIRECTION ( 'NONE',  ( 0.0000000000000000000, 1.000000000000000000, 0.0000000000000000000 ) ) ;
#141 = CARTESIAN_POINT ( 'NONE',  ( 3.491481338843133355E-14, 0.6099999999999987654, 10.00000000000000000 ) ) ;
#142 = CARTESIAN_POINT ( 'NONE',  ( 1.326762908760390423E-13, -4.653657836759941941E-15, 38.00000000000000000 ) ) ;
#143 = DIRECTION ( 'NONE',  ( 0.0000000000000000000, 1.000000000000000000, 0.0000000000000000000 ) ) ;
#144 = DIRECTION ( 'NONE',  ( -3.491481338843133355E-15, 1.229791517316362731E-16, -1.000000000000000000 ) ) ;
#145 = CLOSED_SHELL ( 'NONE', ( #68, #65, #179, #24, #37 ) ) ;
#146 = PERSON_AND_ORGANIZATION ( #153, #96 ) ;
#147 = MECHANICAL_CONTEXT ( 'NONE', #6, 'mechanical' ) ;
#148 = SECURITY_CLASSIFICATION ( '', '', #202 ) ;
#149 = CARTESIAN_POINT ( 'NONE',  ( 0.0000000000000000000, 0.0000000000000000000, 0.0000000000000000000 ) ) ;
#150 = SHAPE_DEFINITION_REPRESENTATION ( #35, #119 ) ;
#151 = EDGE_LOOP ( 'NONE', ( #137 ) ) ;
#152 = EDGE_CURVE ( 'NONE', #93, #93, #33, .T. ) ;
#153 = PERSON ( 'UNSPECIFIED', 'UNSPECIFIED', 'UNSPECIFIED', ('UNSPECIFIED'), ('UNSPECIFIED'), ('UNSPECIFIED') ) ;
#154 = AXIS2_PLACEMENT_3D ( 'NONE', #149, #81, #176 ) ;
#155 = CC_DESIGN_DATE_AND_TIME_ASSIGNMENT ( #99, #115, ( #148 ) ) ;
#156 = DIRECTION ( 'NONE',  ( 0.0000000000000000000, 1.000000000000000000, 0.0000000000000000000 ) ) ;
#157 = CARTESIAN_POINT ( 'NONE',  ( 1.326762908760390423E-13, 8.998558695971077224E-33, 38.00000000000000000 ) ) ;
#158 = CIRCLE ( 'NONE', #220, 1.499999999999998668 ) ;
#159 = FACE_OUTER_BOUND ( 'NONE', #39, .T. ) ;
#160 = CARTESIAN_POINT ( 'NONE',  ( 7.751851213092431295E-16, -0.6099999999999999867, 0.2220218429023861906 ) ) ;
#161 = FACE_BOUND ( 'NONE', #207, .T. ) ;
#162 =( LENGTH_UNIT ( ) NAMED_UNIT ( * ) SI_UNIT ( .MILLI., .METRE. ) );
#163 = APPROVAL_ROLE ( '' ) ;
#164 = VERTEX_POINT ( 'NONE', #15 ) ;
#165 = LOCAL_TIME ( 11, 22, 57.00000000000000000, #135 ) ;
#166 = APPROVAL ( #206, 'UNSPECIFIED' ) ;
#167 = ORIENTED_EDGE ( 'NONE', *, *, #211, .F. ) ;
#168 = EDGE_LOOP ( 'NONE', ( #2 ) ) ;
#169 = CIRCLE ( 'NONE', #40, 1.499999999999999778 ) ;
#170 = CARTESIAN_POINT ( 'NONE',  ( 0.0000000000000000000, 0.0000000000000000000, 0.0000000000000000000 ) ) ;
#171 = DIRECTION ( 'NONE',  ( -4.275831445896958607E-31, -1.000000000000000000, -1.224646799147353207E-16 ) ) ;
#172 = CARTESIAN_POINT ( 'NONE',  ( 3.491481338843133355E-14, 1.124819836996388827E-32, 10.00000000000000000 ) ) ;
#173 = AXIS2_PLACEMENT_3D ( 'NONE', #91, #144, #140 ) ;
#174 = VERTEX_POINT ( 'NONE', #108 ) ;
#175 = CC_DESIGN_PERSON_AND_ORGANIZATION_ASSIGNMENT ( #30, #131, ( #26 ) ) ;
#176 = DIRECTION ( 'NONE',  ( 1.000000000000000000, 0.0000000000000000000, 0.0000000000000000000 ) ) ;
#177 = APPROVAL_DATE_TIME ( #66, #221 ) ;
#178 = CALENDAR_DATE ( 2021, 28, 10 ) ;
#179 = ADVANCED_FACE ( 'NONE', ( #28 ), #21, .F. ) ;
#180 = COORDINATED_UNIVERSAL_TIME_OFFSET ( 1, 0, .AHEAD. ) ;
#181 = PERSON_AND_ORGANIZATION ( #153, #96 ) ;
#182 = AXIS2_PLACEMENT_3D ( 'NONE', #49, #60, #194 ) ;
#183 = EDGE_LOOP ( 'NONE', ( #222 ) ) ;
#184 = DIRECTION ( 'NONE',  ( -5.135813185032644414E-31, -1.000000000000000000, -1.445602896647343601E-16 ) ) ;
#185 = CIRCLE ( 'NONE', #129, 0.6099999999999999867 ) ;
#186 = DATE_AND_TIME ( #139, #165 ) ;
#187 = PRODUCT_DEFINITION ( 'UNKNOWN', '', #26, #88 ) ;
#188 = EDGE_LOOP ( 'NONE', ( #56 ) ) ;
#189 = DIRECTION ( 'NONE',  ( -3.491481338843133355E-15, 1.224646799147353207E-16, -1.000000000000000000 ) ) ;
#190 = LOCAL_TIME ( 11, 22, 57.00000000000000000, #98 ) ;
#191 = EDGE_CURVE ( 'NONE', #164, #164, #219, .T. ) ;
#192 = DIRECTION ( 'NONE',  ( -3.491481338843133355E-15, 1.229791517316362731E-16, -1.000000000000000000 ) ) ;
#193 = CARTESIAN_POINT ( 'NONE',  ( 3.491481338843133355E-14, 1.124819836996388827E-32, 10.00000000000000000 ) ) ;
#194 = DIRECTION ( 'NONE',  ( -4.735893305870252600E-31, -1.000000000000000000, -1.333035457973981003E-16 ) ) ;
#195 = AXIS2_PLACEMENT_3D ( 'NONE', #172, #212, #171 ) ;
#196 = DIRECTION ( 'NONE',  ( 0.0000000000000000000, 1.000000000000000000, 0.0000000000000000000 ) ) ;
#197 = CC_DESIGN_PERSON_AND_ORGANIZATION_ASSIGNMENT ( #11, #128, ( #187 ) ) ;
#198 = PERSON_AND_ORGANIZATION_ROLE ( 'design_owner' ) ;
#199 = APPLICATION_PROTOCOL_DEFINITION ( 'international standard', 'config_control_design', 1994, #51 ) ;
#200 =( NAMED_UNIT ( * ) PLANE_ANGLE_UNIT ( ) SI_UNIT ( $, .RADIAN. ) );
#201 = CONICAL_SURFACE ( 'NONE', #44, 1.199999999999999956, 0.7853981633974453924 ) ;
#202 = SECURITY_CLASSIFICATION_LEVEL ( 'unclassified' ) ;
#203 = CC_DESIGN_APPROVAL ( #132, ( #187 ) ) ;
#204 = UNCERTAINTY_MEASURE_WITH_UNIT (LENGTH_MEASURE( 1.000000000000000082E-05 ), #162, 'distance_accuracy_value', 'NONE');
#205 = CARTESIAN_POINT ( 'NONE',  ( 1.906192921252232855E-15, -6.686024735685322183E-17, 0.5459553513993090634 ) ) ;
#206 = APPROVAL_STATUS ( 'not_yet_approved' ) ;
#207 = EDGE_LOOP ( 'NONE', ( #16 ) ) ;
#208 = AXIS2_PLACEMENT_3D ( 'NONE', #121, #192, #74 ) ;
#209 = EDGE_LOOP ( 'NONE', ( #85 ) ) ;
#210 = DIRECTION ( 'NONE',  ( -3.491481338843133355E-15, 1.224646799147353207E-16, -1.000000000000000000 ) ) ;
#211 = EDGE_CURVE ( 'NONE', #126, #126, #158, .T. ) ;
#212 = DIRECTION ( 'NONE',  ( 3.491481338843133355E-15, -1.224646799147353207E-16, 1.000000000000000000 ) ) ;
#213 = AXIS2_PLACEMENT_3D ( 'NONE', #205, #118, #184 ) ;
#214 = DIRECTION ( 'NONE',  ( 3.491481338843133355E-15, -1.229791517316362731E-16, 1.000000000000000000 ) ) ;
#215 = CARTESIAN_POINT ( 'NONE',  ( 4.651185670614593231E-14, -1.638269871171788897E-15, 13.32152521873628714 ) ) ;
#216 = DIRECTION ( 'NONE',  ( 0.0000000000000000000, 1.000000000000000000, 0.0000000000000000000 ) ) ;
#217 = APPROVAL_PERSON_ORGANIZATION ( #181, #221, #163 ) ;
#218 = DATE_TIME_ROLE ( 'creation_date' ) ;
#219 = CIRCLE ( 'NONE', #17, 1.199999999999999956 ) ;
#220 = AXIS2_PLACEMENT_3D ( 'NONE', #45, #73, #47 ) ;
#221 = APPROVAL ( #31, 'UNSPECIFIED' ) ;
#222 = ORIENTED_EDGE ( 'NONE', *, *, #116, .T. ) ;
#223 = PRODUCT_RELATED_PRODUCT_CATEGORY ( 'detail', '', ( #57 ) ) ;
ENDSEC;
END-ISO-10303-21;
