ISO-10303-21;
HEADER;
FILE_DESCRIPTION (( 'STEP AP203' ),
    '1' );
FILE_NAME ('962911.step',
    '2021-10-28T09:22:57',
    ( '' ),
    ( '' ),
    'SwSTEP 2.0',
    'SolidWorks 2019',
    '' );
FILE_SCHEMA (( 'CONFIG_CONTROL_DESIGN' ));
ENDSEC;

DATA;
#1 = ORIENTED_EDGE ( 'NONE', *, *, #183, .F. ) ;
#2 = AXIS2_PLACEMENT_3D ( 'NONE', #27, #158, #28 ) ;
#3 = ORIENTED_EDGE ( 'NONE', *, *, #6, .F. ) ;
#4 = FACE_OUTER_BOUND ( 'NONE', #157, .T. ) ;
#5 = DIRECTION ( 'NONE',  ( 4.275831445896958607E-31, 1.000000000000000000, 1.224646799147353207E-16 ) ) ;
#6 = EDGE_CURVE ( 'NONE', #124, #124, #52, .T. ) ;
#7 = AXIS2_PLACEMENT_3D ( 'NONE', #45, #88, #177 ) ;
#8 = DIRECTION ( 'NONE',  ( 0.0000000000000000000, 1.000000000000000000, 0.0000000000000000000 ) ) ;
#9 = APPLICATION_CONTEXT ( 'configuration controlled 3d designs of mechanical parts and assemblies' ) ;
#10 = VERTEX_POINT ( 'NONE', #209 ) ;
#11 = CONICAL_SURFACE ( 'NONE', #219, 1.199999999999999956, 0.7853981633974453924 ) ;
#12 = APPROVAL_STATUS ( 'not_yet_approved' ) ;
#13 = PERSON_AND_ORGANIZATION ( #14, #49 ) ;
#14 = PERSON ( 'UNSPECIFIED', 'UNSPECIFIED', 'UNSPECIFIED', ('UNSPECIFIED'), ('UNSPECIFIED'), ('UNSPECIFIED') ) ;
#15 = EDGE_CURVE ( 'NONE', #107, #107, #123, .T. ) ;
#16 = APPLICATION_PROTOCOL_DEFINITION ( 'international standard', 'config_control_design', 1994, #62 ) ;
#17 = CC_DESIGN_DATE_AND_TIME_ASSIGNMENT ( #132, #186, ( #187 ) ) ;
#18 = ORIENTED_EDGE ( 'NONE', *, *, #15, .F. ) ;
#19 = CALENDAR_DATE ( 2021, 28, 10 ) ;
#20 = ORIENTED_EDGE ( 'NONE', *, *, #121, .T. ) ;
#21 = DIRECTION ( 'NONE',  ( -4.275831445896958607E-31, -1.000000000000000000, -1.224646799147353207E-16 ) ) ;
#22 = ADVANCED_BREP_SHAPE_REPRESENTATION ( '962911', ( #105, #26, #83 ), #136 ) ;
#23 = VERTEX_POINT ( 'NONE', #89 ) ;
#24 = DIRECTION ( 'NONE',  ( 3.491481338843133355E-15, -1.224646799147353207E-16, 1.000000000000000000 ) ) ;
#25 = CC_DESIGN_APPROVAL ( #152, ( #187 ) ) ;
#26 = MANIFOLD_SOLID_BREP ( 'Corps-Déplacer/Copier1[2]', #211 ) ;
#27 = CARTESIAN_POINT ( 'NONE',  ( 0.0000000000000000000, 0.0000000000000000000, 0.0000000000000000000 ) ) ;
#28 = DIRECTION ( 'NONE',  ( 4.275831445896958607E-31, 1.000000000000000000, 1.224646799147353207E-16 ) ) ;
#29 = CONICAL_SURFACE ( 'NONE', #141, 1.499999999999995559, 1.221730476396026388 ) ;
#30 = PERSON_AND_ORGANIZATION ( #14, #49 ) ;
#31 = APPROVAL_DATE_TIME ( #204, #193 ) ;
#32 = CC_DESIGN_APPROVAL ( #147, ( #198 ) ) ;
#33 = PERSON_AND_ORGANIZATION ( #14, #49 ) ;
#34 = EDGE_LOOP ( 'NONE', ( #69 ) ) ;
#35 = SHAPE_DEFINITION_REPRESENTATION ( #72, #22 ) ;
#36 = PRODUCT_RELATED_PRODUCT_CATEGORY ( 'detail', '', ( #120 ) ) ;
#37 = CARTESIAN_POINT ( 'NONE',  ( 3.491481338843133355E-14, -1.229791517316362583E-15, 10.00000000000000000 ) ) ;
#38 = ORIENTED_EDGE ( 'NONE', *, *, #205, .T. ) ;
#39 = APPROVAL_PERSON_ORGANIZATION ( #185, #193, #115 ) ;
#40 = APPROVAL_DATE_TIME ( #192, #152 ) ;
#41 = FACE_BOUND ( 'NONE', #137, .T. ) ;
#42 = ADVANCED_FACE ( 'NONE', ( #213 ), #163, .F. ) ;
#43 = VERTEX_POINT ( 'NONE', #176 ) ;
#44 = CARTESIAN_POINT ( 'NONE',  ( 7.688311449050691712E-16, -2.696696643393086546E-17, 0.2202019917310552022 ) ) ;
#45 = CARTESIAN_POINT ( 'NONE',  ( 3.491481338843133355E-14, -1.229791517316362583E-15, 10.00000000000000000 ) ) ;
#46 = APPROVAL_PERSON_ORGANIZATION ( #201, #147, #82 ) ;
#47 = DIRECTION ( 'NONE',  ( -3.491481338843133355E-15, 1.229791517316362731E-16, -1.000000000000000000 ) ) ;
#48 = CARTESIAN_POINT ( 'NONE',  ( 0.0000000000000000000, 0.0000000000000000000, 0.0000000000000000000 ) ) ;
#49 = ORGANIZATION ( 'UNSPECIFIED', 'UNSPECIFIED', '' ) ;
#50 = COORDINATED_UNIVERSAL_TIME_OFFSET ( 1, 0, .AHEAD. ) ;
#51 = CC_DESIGN_DATE_AND_TIME_ASSIGNMENT ( #80, #164, ( #198 ) ) ;
#52 = CIRCLE ( 'NONE', #135, 0.6049999999999999822 ) ;
#53 = ORIENTED_EDGE ( 'NONE', *, *, #6, .T. ) ;
#54 = DIRECTION ( 'NONE',  ( 0.0000000000000000000, 1.000000000000000000, 0.0000000000000000000 ) ) ;
#55 = AXIS2_PLACEMENT_3D ( 'NONE', #127, #142, #122 ) ;
#56 = CARTESIAN_POINT ( 'NONE',  ( 1.326762908760390423E-13, 8.998558695971077224E-33, 38.00000000000000000 ) ) ;
#57 = FACE_OUTER_BOUND ( 'NONE', #118, .T. ) ;
#58 = CARTESIAN_POINT ( 'NONE',  ( 1.316288464743861212E-13, -4.616918432785521081E-15, 37.69999999999999574 ) ) ;
#59 = DIRECTION ( 'NONE',  ( -3.491481338843133355E-15, 1.224646799147353207E-16, -1.000000000000000000 ) ) ;
#60 = FACE_BOUND ( 'NONE', #34, .T. ) ;
#61 = LOCAL_TIME ( 11, 22, 57.00000000000000000, #131 ) ;
#62 = APPLICATION_CONTEXT ( 'configuration controlled 3d designs of mechanical parts and assemblies' ) ;
#63 =( LENGTH_UNIT ( ) NAMED_UNIT ( * ) SI_UNIT ( .MILLI., .METRE. ) );
#64 = PERSON_AND_ORGANIZATION_ROLE ( 'classification_officer' ) ;
#65 = CC_DESIGN_APPROVAL ( #193, ( #119 ) ) ;
#66 = CALENDAR_DATE ( 2021, 28, 10 ) ;
#67 = DESIGN_CONTEXT ( 'detailed design', #62, 'design' ) ;
#68 = EDGE_LOOP ( 'NONE', ( #38 ) ) ;
#69 = ORIENTED_EDGE ( 'NONE', *, *, #96, .F. ) ;
#70 = CC_DESIGN_PERSON_AND_ORGANIZATION_ASSIGNMENT ( #218, #64, ( #187 ) ) ;
#71 = PLANE ( 'NONE',  #97 ) ;
#72 = PRODUCT_DEFINITION_SHAPE ( 'NONE', 'NONE',  #198 ) ;
#73 = DIRECTION ( 'NONE',  ( 3.491481338843133355E-15, -1.224646799147353207E-16, 1.000000000000000000 ) ) ;
#74 = AXIS2_PLACEMENT_3D ( 'NONE', #154, #223, #54 ) ;
#75 = FACE_OUTER_BOUND ( 'NONE', #207, .T. ) ;
#76 = CARTESIAN_POINT ( 'NONE',  ( 4.657700863489714689E-14, -1.640564693384459923E-15, 13.34018547277413091 ) ) ;
#77 = AXIS2_PLACEMENT_3D ( 'NONE', #44, #110, #161 ) ;
#78 = PERSON_AND_ORGANIZATION ( #14, #49 ) ;
#79 = PERSON_AND_ORGANIZATION_ROLE ( 'design_owner' ) ;
#80 = DATE_AND_TIME ( #95, #61 ) ;
#81 = AXIS2_PLACEMENT_3D ( 'NONE', #214, #47, #196 ) ;
#82 = APPROVAL_ROLE ( '' ) ;
#83 = AXIS2_PLACEMENT_3D ( 'NONE', #48, #98, #129 ) ;
#84 = DIRECTION ( 'NONE',  ( 0.0000000000000000000, 1.000000000000000000, 0.0000000000000000000 ) ) ;
#85 = COORDINATED_UNIVERSAL_TIME_OFFSET ( 1, 0, .AHEAD. ) ;
#86 = ADVANCED_FACE ( 'NONE', ( #75 ), #138, .T. ) ;
#87 = CC_DESIGN_SECURITY_CLASSIFICATION ( #187, ( #119 ) ) ;
#88 = DIRECTION ( 'NONE',  ( -3.491481338843133355E-15, 1.229791517316362731E-16, -1.000000000000000000 ) ) ;
#89 = CARTESIAN_POINT ( 'NONE',  ( 1.316288464743861212E-13, 1.499999999999995337, 37.69999999999999574 ) ) ;
#90 = FACE_OUTER_BOUND ( 'NONE', #102, .T. ) ;
#91 = APPROVAL_PERSON_ORGANIZATION ( #33, #152, #101 ) ;
#92 = ADVANCED_FACE ( 'NONE', ( #60, #106 ), #178, .T. ) ;
#93 = CARTESIAN_POINT ( 'NONE',  ( 1.906192921252232855E-15, -6.686024735685322183E-17, 0.5459553513993090634 ) ) ;
#94 = CARTESIAN_POINT ( 'NONE',  ( 4.657700863489714689E-14, 1.499999999999996891, 13.34018547277413091 ) ) ;
#95 = CALENDAR_DATE ( 2021, 28, 10 ) ;
#96 = EDGE_CURVE ( 'NONE', #10, #10, #113, .T. ) ;
#97 = AXIS2_PLACEMENT_3D ( 'NONE', #56, #109, #5 ) ;
#98 = DIRECTION ( 'NONE',  ( 0.0000000000000000000, 0.0000000000000000000, 1.000000000000000000 ) ) ;
#99 = PERSON_AND_ORGANIZATION_ROLE ( 'creator' ) ;
#100 = AXIS2_PLACEMENT_3D ( 'NONE', #199, #24, #21 ) ;
#101 = APPROVAL_ROLE ( '' ) ;
#102 = EDGE_LOOP ( 'NONE', ( #208 ) ) ;
#103 = EDGE_LOOP ( 'NONE', ( #189 ) ) ;
#104 = AXIS2_PLACEMENT_3D ( 'NONE', #76, #162, #143 ) ;
#105 = MANIFOLD_SOLID_BREP ( 'Corps-Déplacer/Copier1[1]', #149 ) ;
#106 = FACE_OUTER_BOUND ( 'NONE', #103, .T. ) ;
#107 = VERTEX_POINT ( 'NONE', #94 ) ;
#108 = DIRECTION ( 'NONE',  ( 0.0000000000000000000, 1.000000000000000000, 0.0000000000000000000 ) ) ;
#109 = DIRECTION ( 'NONE',  ( -3.491481338843133355E-15, 1.224646799147353207E-16, -1.000000000000000000 ) ) ;
#110 = DIRECTION ( 'NONE',  ( -3.491481338843133355E-15, 1.224646799147353207E-16, -1.000000000000000000 ) ) ;
#111 = CC_DESIGN_PERSON_AND_ORGANIZATION_ASSIGNMENT ( #166, #148, ( #119 ) ) ;
#112 = CALENDAR_DATE ( 2021, 28, 10 ) ;
#113 = CIRCLE ( 'NONE', #7, 0.6049999999999999822 ) ;
#114 =( NAMED_UNIT ( * ) PLANE_ANGLE_UNIT ( ) SI_UNIT ( $, .RADIAN. ) );
#115 = APPROVAL_ROLE ( '' ) ;
#116 = COORDINATED_UNIVERSAL_TIME_OFFSET ( 1, 0, .AHEAD. ) ;
#117 = EDGE_LOOP ( 'NONE', ( #53 ) ) ;
#118 = EDGE_LOOP ( 'NONE', ( #206 ) ) ;
#119 = PRODUCT_DEFINITION_FORMATION_WITH_SPECIFIED_SOURCE ( 'ANY', '', #120, .NOT_KNOWN. ) ;
#120 = PRODUCT ( '962911', '962911', '', ( #182 ) ) ;
#121 = EDGE_CURVE ( 'NONE', #43, #43, #128, .T. ) ;
#122 = DIRECTION ( 'NONE',  ( -4.275831445896958607E-31, -1.000000000000000000, -1.224646799147353207E-16 ) ) ;
#123 = CIRCLE ( 'NONE', #74, 1.499999999999998668 ) ;
#124 = VERTEX_POINT ( 'NONE', #195 ) ;
#125 = CYLINDRICAL_SURFACE ( 'NONE', #81, 0.6049999999999999822 ) ;
#126 = DIRECTION ( 'NONE',  ( -5.135813185032644414E-31, -1.000000000000000000, -1.445602896647343601E-16 ) ) ;
#127 = CARTESIAN_POINT ( 'NONE',  ( 3.491481338843133355E-14, 1.124819836996388827E-32, 10.00000000000000000 ) ) ;
#128 = CIRCLE ( 'NONE', #165, 1.199999999999999956 ) ;
#129 = DIRECTION ( 'NONE',  ( 1.000000000000000000, 0.0000000000000000000, 0.0000000000000000000 ) ) ;
#130 = APPROVAL_STATUS ( 'not_yet_approved' ) ;
#131 = COORDINATED_UNIVERSAL_TIME_OFFSET ( 1, 0, .AHEAD. ) ;
#132 = DATE_AND_TIME ( #66, #191 ) ;
#133 = ADVANCED_FACE ( 'NONE', ( #212, #41 ), #11, .T. ) ;
#134 = CALENDAR_DATE ( 2021, 28, 10 ) ;
#135 = AXIS2_PLACEMENT_3D ( 'NONE', #37, #170, #84 ) ;
#136 =( GEOMETRIC_REPRESENTATION_CONTEXT ( 3 ) GLOBAL_UNCERTAINTY_ASSIGNED_CONTEXT ( ( #174 ) ) GLOBAL_UNIT_ASSIGNED_CONTEXT ( ( #63, #114, #184 ) ) REPRESENTATION_CONTEXT ( 'NONE', 'WORKASPACE' ) );
#137 = EDGE_LOOP ( 'NONE', ( #20 ) ) ;
#138 = PLANE ( 'NONE',  #100 ) ;
#139 = DIRECTION ( 'NONE',  ( 0.0000000000000000000, 1.000000000000000000, 0.0000000000000000000 ) ) ;
#140 = CC_DESIGN_PERSON_AND_ORGANIZATION_ASSIGNMENT ( #30, #79, ( #120 ) ) ;
#141 = AXIS2_PLACEMENT_3D ( 'NONE', #93, #73, #126 ) ;
#142 = DIRECTION ( 'NONE',  ( 3.491481338843133355E-15, -1.224646799147353207E-16, 1.000000000000000000 ) ) ;
#143 = DIRECTION ( 'NONE',  ( 0.0000000000000000000, -1.000000000000000000, 0.0000000000000000000 ) ) ;
#144 = CARTESIAN_POINT ( 'NONE',  ( 1.326762908760390423E-13, -4.653657836759941941E-15, 38.00000000000000000 ) ) ;
#145 = COORDINATED_UNIVERSAL_TIME_OFFSET ( 1, 0, .AHEAD. ) ;
#146 = PERSON_AND_ORGANIZATION_ROLE ( 'creator' ) ;
#147 = APPROVAL ( #130, 'UNSPECIFIED' ) ;
#148 = PERSON_AND_ORGANIZATION_ROLE ( 'design_supplier' ) ;
#149 = CLOSED_SHELL ( 'NONE', ( #221, #133, #169, #92, #42 ) ) ;
#150 = CC_DESIGN_PERSON_AND_ORGANIZATION_ASSIGNMENT ( #78, #99, ( #119 ) ) ;
#151 = EDGE_LOOP ( 'NONE', ( #18 ) ) ;
#152 = APPROVAL ( #203, 'UNSPECIFIED' ) ;
#153 = AXIS2_PLACEMENT_3D ( 'NONE', #58, #179, #139 ) ;
#154 = CARTESIAN_POINT ( 'NONE',  ( 4.657700863489714689E-14, -1.640564693384459923E-15, 13.34018547277413091 ) ) ;
#155 = CC_DESIGN_PERSON_AND_ORGANIZATION_ASSIGNMENT ( #13, #146, ( #198 ) ) ;
#156 = EDGE_LOOP ( 'NONE', ( #1 ) ) ;
#157 = EDGE_LOOP ( 'NONE', ( #222 ) ) ;
#158 = DIRECTION ( 'NONE',  ( -3.491481338843133355E-15, 1.224646799147353207E-16, -1.000000000000000000 ) ) ;
#159 = CARTESIAN_POINT ( 'NONE',  ( 1.326762908760390423E-13, -4.653657836759941941E-15, 38.00000000000000000 ) ) ;
#160 = CIRCLE ( 'NONE', #77, 0.6049999999999999822 ) ;
#161 = DIRECTION ( 'NONE',  ( -4.775032919968353557E-31, -1.000000000000000000, -1.344052279940708033E-16 ) ) ;
#162 = DIRECTION ( 'NONE',  ( 3.491481338843133355E-15, -1.229791517316362731E-16, 1.000000000000000000 ) ) ;
#163 = PLANE ( 'NONE',  #55 ) ;
#164 = DATE_TIME_ROLE ( 'creation_date' ) ;
#165 = AXIS2_PLACEMENT_3D ( 'NONE', #159, #59, #8 ) ;
#166 = PERSON_AND_ORGANIZATION ( #14, #49 ) ;
#167 = APPLICATION_PROTOCOL_DEFINITION ( 'international standard', 'config_control_design', 1994, #9 ) ;
#168 = CIRCLE ( 'NONE', #153, 1.499999999999999778 ) ;
#169 = ADVANCED_FACE ( 'NONE', ( #4 ), #71, .F. ) ;
#170 = DIRECTION ( 'NONE',  ( -3.491481338843133355E-15, 1.229791517316362731E-16, -1.000000000000000000 ) ) ;
#171 = LOCAL_TIME ( 11, 22, 57.00000000000000000, #50 ) ;
#172 = ADVANCED_FACE ( 'NONE', ( #194 ), #29, .T. ) ;
#173 = EDGE_LOOP ( 'NONE', ( #188 ) ) ;
#174 = UNCERTAINTY_MEASURE_WITH_UNIT (LENGTH_MEASURE( 1.000000000000000082E-05 ), #63, 'distance_accuracy_value', 'NONE');
#175 = DIRECTION ( 'NONE',  ( -3.491481338843133355E-15, 1.224646799147353207E-16, -1.000000000000000000 ) ) ;
#176 = CARTESIAN_POINT ( 'NONE',  ( 1.326762908760390423E-13, 1.199999999999995293, 38.00000000000000000 ) ) ;
#177 = DIRECTION ( 'NONE',  ( 0.0000000000000000000, 1.000000000000000000, 0.0000000000000000000 ) ) ;
#178 = CONICAL_SURFACE ( 'NONE', #104, 1.499999999999998668, 0.2617993877991501295 ) ;
#179 = DIRECTION ( 'NONE',  ( -3.491481338843133355E-15, 1.224646799147353207E-16, -1.000000000000000000 ) ) ;
#180 = CYLINDRICAL_SURFACE ( 'NONE', #2, 1.499999999999998224 ) ;
#181 = APPROVAL_DATE_TIME ( #220, #147 ) ;
#182 = MECHANICAL_CONTEXT ( 'NONE', #9, 'mechanical' ) ;
#183 = EDGE_CURVE ( 'NONE', #23, #23, #168, .T. ) ;
#184 =( NAMED_UNIT ( * ) SI_UNIT ( $, .STERADIAN. ) SOLID_ANGLE_UNIT ( ) );
#185 = PERSON_AND_ORGANIZATION ( #14, #49 ) ;
#186 = DATE_TIME_ROLE ( 'classification_date' ) ;
#187 = SECURITY_CLASSIFICATION ( '', '', #216 ) ;
#188 = ORIENTED_EDGE ( 'NONE', *, *, #96, .T. ) ;
#189 = ORIENTED_EDGE ( 'NONE', *, *, #15, .T. ) ;
#190 = ADVANCED_FACE ( 'NONE', ( #197, #90 ), #125, .T. ) ;
#191 = LOCAL_TIME ( 11, 22, 57.00000000000000000, #116 ) ;
#192 = DATE_AND_TIME ( #19, #217 ) ;
#193 = APPROVAL ( #12, 'UNSPECIFIED' ) ;
#194 = FACE_OUTER_BOUND ( 'NONE', #68, .T. ) ;
#195 = CARTESIAN_POINT ( 'NONE',  ( 3.491481338843133355E-14, 0.6049999999999987610, 10.00000000000000000 ) ) ;
#196 = DIRECTION ( 'NONE',  ( 4.293794133377661370E-31, 1.000000000000000000, 1.229791517316362731E-16 ) ) ;
#197 = FACE_OUTER_BOUND ( 'NONE', #117, .T. ) ;
#198 = PRODUCT_DEFINITION ( 'UNKNOWN', '', #119, #67 ) ;
#199 = CARTESIAN_POINT ( 'NONE',  ( 3.491481338843133355E-14, 1.124819836996388827E-32, 10.00000000000000000 ) ) ;
#200 = CARTESIAN_POINT ( 'NONE',  ( 7.688311449050688754E-16, -0.6049999999999999822, 0.2202019917310551189 ) ) ;
#201 = PERSON_AND_ORGANIZATION ( #14, #49 ) ;
#202 = LOCAL_TIME ( 11, 22, 57.00000000000000000, #145 ) ;
#203 = APPROVAL_STATUS ( 'not_yet_approved' ) ;
#204 = DATE_AND_TIME ( #134, #202 ) ;
#205 = EDGE_CURVE ( 'NONE', #215, #215, #160, .T. ) ;
#206 = ORIENTED_EDGE ( 'NONE', *, *, #183, .T. ) ;
#207 = EDGE_LOOP ( 'NONE', ( #3 ) ) ;
#208 = ORIENTED_EDGE ( 'NONE', *, *, #205, .F. ) ;
#209 = CARTESIAN_POINT ( 'NONE',  ( 3.491481338843133355E-14, 0.6049999999999987610, 10.00000000000000000 ) ) ;
#210 = FACE_OUTER_BOUND ( 'NONE', #151, .T. ) ;
#211 = CLOSED_SHELL ( 'NONE', ( #86, #190, #172 ) ) ;
#212 = FACE_OUTER_BOUND ( 'NONE', #156, .T. ) ;
#213 = FACE_OUTER_BOUND ( 'NONE', #173, .T. ) ;
#214 = CARTESIAN_POINT ( 'NONE',  ( 0.0000000000000000000, 0.0000000000000000000, 0.0000000000000000000 ) ) ;
#215 = VERTEX_POINT ( 'NONE', #200 ) ;
#216 = SECURITY_CLASSIFICATION_LEVEL ( 'unclassified' ) ;
#217 = LOCAL_TIME ( 11, 22, 57.00000000000000000, #85 ) ;
#218 = PERSON_AND_ORGANIZATION ( #14, #49 ) ;
#219 = AXIS2_PLACEMENT_3D ( 'NONE', #144, #175, #108 ) ;
#220 = DATE_AND_TIME ( #112, #171 ) ;
#221 = ADVANCED_FACE ( 'NONE', ( #210, #57 ), #180, .T. ) ;
#222 = ORIENTED_EDGE ( 'NONE', *, *, #121, .F. ) ;
#223 = DIRECTION ( 'NONE',  ( -3.491481338843133355E-15, 1.229791517316362731E-16, -1.000000000000000000 ) ) ;
ENDSEC;
END-ISO-10303-21;
