ISO-10303-21;
HEADER;
FILE_DESCRIPTION (( 'STEP AP203' ),
    '1' );
FILE_NAME ('962910.step',
    '2021-10-28T09:22:56',
    ( '' ),
    ( '' ),
    'SwSTEP 2.0',
    'SolidWorks 2019',
    '' );
FILE_SCHEMA (( 'CONFIG_CONTROL_DESIGN' ));
ENDSEC;

DATA;
#1 = DIRECTION ( 'NONE',  ( -4.275831445896958607E-31, -1.000000000000000000, -1.224646799147353207E-16 ) ) ;
#2 = DIRECTION ( 'NONE',  ( -3.491481338843133355E-15, 1.224646799147353207E-16, -1.000000000000000000 ) ) ;
#3 = DIRECTION ( 'NONE',  ( 4.293794133377662246E-31, 1.000000000000000000, 1.229791517316362731E-16 ) ) ;
#4 = AXIS2_PLACEMENT_3D ( 'NONE', #111, #23, #196 ) ;
#5 = APPROVAL_PERSON_ORGANIZATION ( #6, #156, #59 ) ;
#6 = PERSON_AND_ORGANIZATION ( #185, #170 ) ;
#7 = EDGE_CURVE ( 'NONE', #175, #175, #33, .T. ) ;
#8 = APPROVAL_STATUS ( 'not_yet_approved' ) ;
#9 = LOCAL_TIME ( 11, 22, 56.00000000000000000, #12 ) ;
#10 = PERSON_AND_ORGANIZATION ( #185, #170 ) ;
#11 = DIRECTION ( 'NONE',  ( -3.491481338843133355E-15, 1.229791517316362731E-16, -1.000000000000000000 ) ) ;
#12 = COORDINATED_UNIVERSAL_TIME_OFFSET ( 1, 0, .AHEAD. ) ;
#13 = EDGE_LOOP ( 'NONE', ( #163 ) ) ;
#14 = CC_DESIGN_APPROVAL ( #148, ( #139 ) ) ;
#15 = LOCAL_TIME ( 11, 22, 56.00000000000000000, #145 ) ;
#16 = CARTESIAN_POINT ( 'NONE',  ( 3.491481338843133355E-14, -1.229791517316362583E-15, 10.00000000000000000 ) ) ;
#17 = AXIS2_PLACEMENT_3D ( 'NONE', #141, #223, #86 ) ;
#18 = CARTESIAN_POINT ( 'NONE',  ( 1.326762908760390423E-13, -4.653657836759941941E-15, 38.00000000000000000 ) ) ;
#19 = PERSON_AND_ORGANIZATION ( #185, #170 ) ;
#20 = EDGE_CURVE ( 'NONE', #78, #78, #197, .T. ) ;
#21 = CARTESIAN_POINT ( 'NONE',  ( 3.491481338843133355E-14, 0.5999999999999987566, 10.00000000000000000 ) ) ;
#22 = AXIS2_PLACEMENT_3D ( 'NONE', #222, #2, #205 ) ;
#23 = DIRECTION ( 'NONE',  ( -3.491481338843133355E-15, 1.229791517316362731E-16, -1.000000000000000000 ) ) ;
#24 = FACE_OUTER_BOUND ( 'NONE', #13, .T. ) ;
#25 = CC_DESIGN_PERSON_AND_ORGANIZATION_ASSIGNMENT ( #10, #93, ( #107 ) ) ;
#26 = AXIS2_PLACEMENT_3D ( 'NONE', #18, #207, #122 ) ;
#27 = PERSON_AND_ORGANIZATION_ROLE ( 'classification_officer' ) ;
#28 = PERSON_AND_ORGANIZATION ( #185, #170 ) ;
#29 = ORIENTED_EDGE ( 'NONE', *, *, #158, .T. ) ;
#30 = APPROVAL_PERSON_ORGANIZATION ( #178, #148, #202 ) ;
#31 = APPROVAL_ROLE ( '' ) ;
#32 = EDGE_LOOP ( 'NONE', ( #188 ) ) ;
#33 = CIRCLE ( 'NONE', #121, 0.5999999999999999778 ) ;
#34 = CC_DESIGN_SECURITY_CLASSIFICATION ( #139, ( #107 ) ) ;
#35 = MANIFOLD_SOLID_BREP ( 'Corps-Déplacer/Copier1[2]', #98 ) ;
#36 = FACE_OUTER_BOUND ( 'NONE', #187, .T. ) ;
#37 = PLANE ( 'NONE',  #138 ) ;
#38 = VERTEX_POINT ( 'NONE', #21 ) ;
#39 = CARTESIAN_POINT ( 'NONE',  ( 0.0000000000000000000, 0.0000000000000000000, 0.0000000000000000000 ) ) ;
#40 = CLOSED_SHELL ( 'NONE', ( #73, #47, #112, #132, #87 ) ) ;
#41 = PRODUCT_DEFINITION ( 'UNKNOWN', '', #107, #67 ) ;
#42 = CARTESIAN_POINT ( 'NONE',  ( 0.0000000000000000000, 0.0000000000000000000, 0.0000000000000000000 ) ) ;
#43 = CC_DESIGN_DATE_AND_TIME_ASSIGNMENT ( #65, #91, ( #41 ) ) ;
#44 = DIRECTION ( 'NONE',  ( 0.0000000000000000000, 0.0000000000000000000, 1.000000000000000000 ) ) ;
#45 = DIRECTION ( 'NONE',  ( -3.491481338843133355E-15, 1.229791517316362731E-16, -1.000000000000000000 ) ) ;
#46 = APPROVAL_PERSON_ORGANIZATION ( #133, #217, #31 ) ;
#47 = ADVANCED_FACE ( 'NONE', ( #36, #168 ), #77, .T. ) ;
#48 = PERSON_AND_ORGANIZATION ( #185, #170 ) ;
#49 = ADVANCED_FACE ( 'NONE', ( #75 ), #120, .T. ) ;
#50 = EDGE_LOOP ( 'NONE', ( #131 ) ) ;
#51 = EDGE_LOOP ( 'NONE', ( #200 ) ) ;
#52 = EDGE_CURVE ( 'NONE', #105, #105, #94, .T. ) ;
#53 = AXIS2_PLACEMENT_3D ( 'NONE', #88, #154, #212 ) ;
#54 = DIRECTION ( 'NONE',  ( 4.275831445896958607E-31, 1.000000000000000000, 1.224646799147353207E-16 ) ) ;
#55 = ADVANCED_BREP_SHAPE_REPRESENTATION ( '962910', ( #106, #35, #176 ), #129 ) ;
#56 = FACE_OUTER_BOUND ( 'NONE', #62, .T. ) ;
#57 = AXIS2_PLACEMENT_3D ( 'NONE', #60, #137, #100 ) ;
#58 = CARTESIAN_POINT ( 'NONE',  ( 3.491481338843133355E-14, 1.124819836996388827E-32, 10.00000000000000000 ) ) ;
#59 = APPROVAL_ROLE ( '' ) ;
#60 = CARTESIAN_POINT ( 'NONE',  ( 4.664216056364834885E-14, -1.642859515597130752E-15, 13.35884572681197646 ) ) ;
#61 = DATE_AND_TIME ( #130, #204 ) ;
#62 = EDGE_LOOP ( 'NONE', ( #95 ) ) ;
#63 = CALENDAR_DATE ( 2021, 28, 10 ) ;
#64 = CIRCLE ( 'NONE', #99, 1.499999999999999778 ) ;
#65 = DATE_AND_TIME ( #199, #15 ) ;
#66 = EDGE_LOOP ( 'NONE', ( #180 ) ) ;
#67 = DESIGN_CONTEXT ( 'detailed design', #219, 'design' ) ;
#68 = ORIENTED_EDGE ( 'NONE', *, *, #192, .T. ) ;
#69 = CYLINDRICAL_SURFACE ( 'NONE', #169, 1.499999999999998224 ) ;
#70 = AXIS2_PLACEMENT_3D ( 'NONE', #16, #11, #80 ) ;
#71 = DIRECTION ( 'NONE',  ( 3.491481338843133355E-15, -1.224646799147353207E-16, 1.000000000000000000 ) ) ;
#72 = CARTESIAN_POINT ( 'NONE',  ( 1.316288464743861212E-13, -4.616918432785521081E-15, 37.69999999999999574 ) ) ;
#73 = ADVANCED_FACE ( 'NONE', ( #103, #119 ), #69, .T. ) ;
#74 = CC_DESIGN_APPROVAL ( #217, ( #107 ) ) ;
#75 = FACE_OUTER_BOUND ( 'NONE', #221, .T. ) ;
#76 =( NAMED_UNIT ( * ) PLANE_ANGLE_UNIT ( ) SI_UNIT ( $, .RADIAN. ) );
#77 = CONICAL_SURFACE ( 'NONE', #26, 1.199999999999999956, 0.7853981633974453924 ) ;
#78 = VERTEX_POINT ( 'NONE', #177 ) ;
#79 = PERSON_AND_ORGANIZATION_ROLE ( 'creator' ) ;
#80 = DIRECTION ( 'NONE',  ( 0.0000000000000000000, 1.000000000000000000, 0.0000000000000000000 ) ) ;
#81 = CC_DESIGN_PERSON_AND_ORGANIZATION_ASSIGNMENT ( #28, #79, ( #41 ) ) ;
#82 = ORIENTED_EDGE ( 'NONE', *, *, #124, .T. ) ;
#83 = AXIS2_PLACEMENT_3D ( 'NONE', #172, #125, #108 ) ;
#84 = FACE_OUTER_BOUND ( 'NONE', #50, .T. ) ;
#85 = DIRECTION ( 'NONE',  ( 0.0000000000000000000, 1.000000000000000000, 0.0000000000000000000 ) ) ;
#86 = DIRECTION ( 'NONE',  ( -4.275831445896958607E-31, -1.000000000000000000, -1.224646799147353207E-16 ) ) ;
#87 = ADVANCED_FACE ( 'NONE', ( #171 ), #37, .F. ) ;
#88 = CARTESIAN_POINT ( 'NONE',  ( 1.326762908760390423E-13, -4.653657836759941941E-15, 38.00000000000000000 ) ) ;
#89 =( NAMED_UNIT ( * ) SI_UNIT ( $, .STERADIAN. ) SOLID_ANGLE_UNIT ( ) );
#90 = CIRCLE ( 'NONE', #53, 1.199999999999999956 ) ;
#91 = DATE_TIME_ROLE ( 'creation_date' ) ;
#92 = VERTEX_POINT ( 'NONE', #155 ) ;
#93 = PERSON_AND_ORGANIZATION_ROLE ( 'design_supplier' ) ;
#94 = CIRCLE ( 'NONE', #57, 1.499999999999998668 ) ;
#95 = ORIENTED_EDGE ( 'NONE', *, *, #52, .T. ) ;
#96 = DATE_TIME_ROLE ( 'classification_date' ) ;
#97 = DIRECTION ( 'NONE',  ( -3.491481338843133355E-15, 1.224646799147353207E-16, -1.000000000000000000 ) ) ;
#98 = CLOSED_SHELL ( 'NONE', ( #49, #189, #118 ) ) ;
#99 = AXIS2_PLACEMENT_3D ( 'NONE', #72, #136, #85 ) ;
#100 = DIRECTION ( 'NONE',  ( 0.0000000000000000000, 1.000000000000000000, 0.0000000000000000000 ) ) ;
#101 = FACE_OUTER_BOUND ( 'NONE', #203, .T. ) ;
#102 = CARTESIAN_POINT ( 'NONE',  ( 1.326762908760390423E-13, 1.199999999999995293, 38.00000000000000000 ) ) ;
#103 = FACE_OUTER_BOUND ( 'NONE', #66, .T. ) ;
#104 = CC_DESIGN_APPROVAL ( #156, ( #41 ) ) ;
#105 = VERTEX_POINT ( 'NONE', #143 ) ;
#106 = MANIFOLD_SOLID_BREP ( 'Corps-Déplacer/Copier1[1]', #40 ) ;
#107 = PRODUCT_DEFINITION_FORMATION_WITH_SPECIFIED_SOURCE ( 'ANY', '', #147, .NOT_KNOWN. ) ;
#108 = DIRECTION ( 'NONE',  ( 0.0000000000000000000, -1.000000000000000000, 0.0000000000000000000 ) ) ;
#109 = LOCAL_TIME ( 11, 22, 56.00000000000000000, #123 ) ;
#110 = CALENDAR_DATE ( 2021, 28, 10 ) ;
#111 = CARTESIAN_POINT ( 'NONE',  ( 3.491481338843133355E-14, -1.229791517316362583E-15, 10.00000000000000000 ) ) ;
#112 = ADVANCED_FACE ( 'NONE', ( #84 ), #150, .F. ) ;
#113 = PRODUCT_RELATED_PRODUCT_CATEGORY ( 'detail', '', ( #147 ) ) ;
#114 = APPROVAL_DATE_TIME ( #162, #148 ) ;
#115 = SHAPE_DEFINITION_REPRESENTATION ( #117, #55 ) ;
#116 = EDGE_LOOP ( 'NONE', ( #82 ) ) ;
#117 = PRODUCT_DEFINITION_SHAPE ( 'NONE', 'NONE',  #41 ) ;
#118 = ADVANCED_FACE ( 'NONE', ( #101 ), #201, .T. ) ;
#119 = FACE_OUTER_BOUND ( 'NONE', #116, .T. ) ;
#120 = PLANE ( 'NONE',  #17 ) ;
#121 = AXIS2_PLACEMENT_3D ( 'NONE', #161, #97, #166 ) ;
#122 = DIRECTION ( 'NONE',  ( 0.0000000000000000000, 1.000000000000000000, 0.0000000000000000000 ) ) ;
#123 = COORDINATED_UNIVERSAL_TIME_OFFSET ( 1, 0, .AHEAD. ) ;
#124 = EDGE_CURVE ( 'NONE', #92, #92, #64, .T. ) ;
#125 = DIRECTION ( 'NONE',  ( 3.491481338843133355E-15, -1.229791517316362731E-16, 1.000000000000000000 ) ) ;
#126 = AXIS2_PLACEMENT_3D ( 'NONE', #152, #210, #191 ) ;
#127 = PERSON_AND_ORGANIZATION_ROLE ( 'design_owner' ) ;
#128 = FACE_OUTER_BOUND ( 'NONE', #51, .T. ) ;
#129 =( GEOMETRIC_REPRESENTATION_CONTEXT ( 3 ) GLOBAL_UNCERTAINTY_ASSIGNED_CONTEXT ( ( #135 ) ) GLOBAL_UNIT_ASSIGNED_CONTEXT ( ( #151, #76, #89 ) ) REPRESENTATION_CONTEXT ( 'NONE', 'WORKASPACE' ) );
#130 = CALENDAR_DATE ( 2021, 28, 10 ) ;
#131 = ORIENTED_EDGE ( 'NONE', *, *, #192, .F. ) ;
#132 = ADVANCED_FACE ( 'NONE', ( #173, #56 ), #182, .T. ) ;
#133 = PERSON_AND_ORGANIZATION ( #185, #170 ) ;
#134 = ORIENTED_EDGE ( 'NONE', *, *, #7, .T. ) ;
#135 = UNCERTAINTY_MEASURE_WITH_UNIT (LENGTH_MEASURE( 1.000000000000000082E-05 ), #151, 'distance_accuracy_value', 'NONE');
#136 = DIRECTION ( 'NONE',  ( -3.491481338843133355E-15, 1.224646799147353207E-16, -1.000000000000000000 ) ) ;
#137 = DIRECTION ( 'NONE',  ( -3.491481338843133355E-15, 1.229791517316362731E-16, -1.000000000000000000 ) ) ;
#138 = AXIS2_PLACEMENT_3D ( 'NONE', #58, #71, #1 ) ;
#139 = SECURITY_CLASSIFICATION ( '', '', #179 ) ;
#140 = APPLICATION_PROTOCOL_DEFINITION ( 'international standard', 'config_control_design', 1994, #219 ) ;
#141 = CARTESIAN_POINT ( 'NONE',  ( 3.491481338843133355E-14, 1.124819836996388827E-32, 10.00000000000000000 ) ) ;
#142 = APPLICATION_PROTOCOL_DEFINITION ( 'international standard', 'config_control_design', 1994, #206 ) ;
#143 = CARTESIAN_POINT ( 'NONE',  ( 4.664216056364834885E-14, 1.499999999999996891, 13.35884572681197646 ) ) ;
#144 = CARTESIAN_POINT ( 'NONE',  ( 7.624771685008948185E-16, -0.5999999999999999778, 0.2183821405597240750 ) ) ;
#145 = COORDINATED_UNIVERSAL_TIME_OFFSET ( 1, 0, .AHEAD. ) ;
#146 = PERSON_AND_ORGANIZATION ( #185, #170 ) ;
#147 = PRODUCT ( '962910', '962910', '', ( #211 ) ) ;
#148 = APPROVAL ( #8, 'UNSPECIFIED' ) ;
#149 = CIRCLE ( 'NONE', #4, 0.5999999999999999778 ) ;
#150 = PLANE ( 'NONE',  #22 ) ;
#151 =( LENGTH_UNIT ( ) NAMED_UNIT ( * ) SI_UNIT ( .MILLI., .METRE. ) );
#152 = CARTESIAN_POINT ( 'NONE',  ( 1.906192921252232855E-15, -6.686024735685322183E-17, 0.5459553513993090634 ) ) ;
#153 = LOCAL_TIME ( 11, 22, 56.00000000000000000, #216 ) ;
#154 = DIRECTION ( 'NONE',  ( -3.491481338843133355E-15, 1.224646799147353207E-16, -1.000000000000000000 ) ) ;
#155 = CARTESIAN_POINT ( 'NONE',  ( 1.316288464743861212E-13, 1.499999999999995337, 37.69999999999999574 ) ) ;
#156 = APPROVAL ( #209, 'UNSPECIFIED' ) ;
#157 = CYLINDRICAL_SURFACE ( 'NONE', #208, 0.5999999999999999778 ) ;
#158 = EDGE_CURVE ( 'NONE', #38, #38, #149, .T. ) ;
#159 = APPROVAL_STATUS ( 'not_yet_approved' ) ;
#160 = DATE_AND_TIME ( #213, #9 ) ;
#161 = CARTESIAN_POINT ( 'NONE',  ( 7.624771685008951143E-16, -2.674409894274135221E-17, 0.2183821405597241583 ) ) ;
#162 = DATE_AND_TIME ( #110, #153 ) ;
#163 = ORIENTED_EDGE ( 'NONE', *, *, #20, .T. ) ;
#164 = APPROVAL_DATE_TIME ( #61, #217 ) ;
#165 = ORIENTED_EDGE ( 'NONE', *, *, #20, .F. ) ;
#166 = DIRECTION ( 'NONE',  ( -4.814824860968089633E-31, -1.000000000000000000, -1.355252715606880543E-16 ) ) ;
#167 = CC_DESIGN_DATE_AND_TIME_ASSIGNMENT ( #160, #96, ( #139 ) ) ;
#168 = FACE_BOUND ( 'NONE', #218, .T. ) ;
#169 = AXIS2_PLACEMENT_3D ( 'NONE', #39, #190, #54 ) ;
#170 = ORGANIZATION ( 'UNSPECIFIED', 'UNSPECIFIED', '' ) ;
#171 = FACE_OUTER_BOUND ( 'NONE', #198, .T. ) ;
#172 = CARTESIAN_POINT ( 'NONE',  ( 4.664216056364834885E-14, -1.642859515597130752E-15, 13.35884572681197646 ) ) ;
#173 = FACE_BOUND ( 'NONE', #32, .T. ) ;
#174 = DIRECTION ( 'NONE',  ( 1.000000000000000000, 0.0000000000000000000, 0.0000000000000000000 ) ) ;
#175 = VERTEX_POINT ( 'NONE', #144 ) ;
#176 = AXIS2_PLACEMENT_3D ( 'NONE', #195, #44, #174 ) ;
#177 = CARTESIAN_POINT ( 'NONE',  ( 3.491481338843133355E-14, 0.5999999999999987566, 10.00000000000000000 ) ) ;
#178 = PERSON_AND_ORGANIZATION ( #185, #170 ) ;
#179 = SECURITY_CLASSIFICATION_LEVEL ( 'unclassified' ) ;
#180 = ORIENTED_EDGE ( 'NONE', *, *, #52, .F. ) ;
#181 = PERSON_AND_ORGANIZATION_ROLE ( 'creator' ) ;
#182 = CONICAL_SURFACE ( 'NONE', #83, 1.499999999999998668, 0.2617993877991500740 ) ;
#183 = ORIENTED_EDGE ( 'NONE', *, *, #124, .F. ) ;
#184 = CC_DESIGN_PERSON_AND_ORGANIZATION_ASSIGNMENT ( #48, #181, ( #107 ) ) ;
#185 = PERSON ( 'UNSPECIFIED', 'UNSPECIFIED', 'UNSPECIFIED', ('UNSPECIFIED'), ('UNSPECIFIED'), ('UNSPECIFIED') ) ;
#186 = COORDINATED_UNIVERSAL_TIME_OFFSET ( 1, 0, .AHEAD. ) ;
#187 = EDGE_LOOP ( 'NONE', ( #183 ) ) ;
#188 = ORIENTED_EDGE ( 'NONE', *, *, #158, .F. ) ;
#189 = ADVANCED_FACE ( 'NONE', ( #24, #128 ), #157, .T. ) ;
#190 = DIRECTION ( 'NONE',  ( -3.491481338843133355E-15, 1.224646799147353207E-16, -1.000000000000000000 ) ) ;
#191 = DIRECTION ( 'NONE',  ( -5.135813185032644414E-31, -1.000000000000000000, -1.445602896647343601E-16 ) ) ;
#192 = EDGE_CURVE ( 'NONE', #194, #194, #90, .T. ) ;
#193 = CC_DESIGN_PERSON_AND_ORGANIZATION_ASSIGNMENT ( #146, #27, ( #139 ) ) ;
#194 = VERTEX_POINT ( 'NONE', #102 ) ;
#195 = CARTESIAN_POINT ( 'NONE',  ( 0.0000000000000000000, 0.0000000000000000000, 0.0000000000000000000 ) ) ;
#196 = DIRECTION ( 'NONE',  ( 0.0000000000000000000, 1.000000000000000000, 0.0000000000000000000 ) ) ;
#197 = CIRCLE ( 'NONE', #70, 0.5999999999999999778 ) ;
#198 = EDGE_LOOP ( 'NONE', ( #29 ) ) ;
#199 = CALENDAR_DATE ( 2021, 28, 10 ) ;
#200 = ORIENTED_EDGE ( 'NONE', *, *, #7, .F. ) ;
#201 = CONICAL_SURFACE ( 'NONE', #126, 1.499999999999995559, 1.221730476396026388 ) ;
#202 = APPROVAL_ROLE ( '' ) ;
#203 = EDGE_LOOP ( 'NONE', ( #134 ) ) ;
#204 = LOCAL_TIME ( 11, 22, 56.00000000000000000, #186 ) ;
#205 = DIRECTION ( 'NONE',  ( 4.275831445896958607E-31, 1.000000000000000000, 1.224646799147353207E-16 ) ) ;
#206 = APPLICATION_CONTEXT ( 'configuration controlled 3d designs of mechanical parts and assemblies' ) ;
#207 = DIRECTION ( 'NONE',  ( -3.491481338843133355E-15, 1.224646799147353207E-16, -1.000000000000000000 ) ) ;
#208 = AXIS2_PLACEMENT_3D ( 'NONE', #42, #45, #3 ) ;
#209 = APPROVAL_STATUS ( 'not_yet_approved' ) ;
#210 = DIRECTION ( 'NONE',  ( 3.491481338843133355E-15, -1.224646799147353207E-16, 1.000000000000000000 ) ) ;
#211 = MECHANICAL_CONTEXT ( 'NONE', #206, 'mechanical' ) ;
#212 = DIRECTION ( 'NONE',  ( 0.0000000000000000000, 1.000000000000000000, 0.0000000000000000000 ) ) ;
#213 = CALENDAR_DATE ( 2021, 28, 10 ) ;
#214 = DATE_AND_TIME ( #63, #109 ) ;
#215 = CC_DESIGN_PERSON_AND_ORGANIZATION_ASSIGNMENT ( #19, #127, ( #147 ) ) ;
#216 = COORDINATED_UNIVERSAL_TIME_OFFSET ( 1, 0, .AHEAD. ) ;
#217 = APPROVAL ( #159, 'UNSPECIFIED' ) ;
#218 = EDGE_LOOP ( 'NONE', ( #68 ) ) ;
#219 = APPLICATION_CONTEXT ( 'configuration controlled 3d designs of mechanical parts and assemblies' ) ;
#220 = APPROVAL_DATE_TIME ( #214, #156 ) ;
#221 = EDGE_LOOP ( 'NONE', ( #165 ) ) ;
#222 = CARTESIAN_POINT ( 'NONE',  ( 1.326762908760390423E-13, 8.998558695971077224E-33, 38.00000000000000000 ) ) ;
#223 = DIRECTION ( 'NONE',  ( 3.491481338843133355E-15, -1.224646799147353207E-16, 1.000000000000000000 ) ) ;
ENDSEC;
END-ISO-10303-21;
