ISO-10303-21;
HEADER;
FILE_DESCRIPTION (( 'STEP AP203' ),
    '1' );
FILE_NAME ('962909.step',
    '2021-10-28T09:22:55',
    ( '' ),
    ( '' ),
    'SwSTEP 2.0',
    'SolidWorks 2019',
    '' );
FILE_SCHEMA (( 'CONFIG_CONTROL_DESIGN' ));
ENDSEC;

DATA;
#1 = AXIS2_PLACEMENT_3D ( 'NONE', #142, #128, #74 ) ;
#2 = EDGE_LOOP ( 'NONE', ( #161 ) ) ;
#3 = EDGE_LOOP ( 'NONE', ( #55 ) ) ;
#4 = DATE_TIME_ROLE ( 'creation_date' ) ;
#5 = EDGE_LOOP ( 'NONE', ( #40 ) ) ;
#6 = APPROVAL_DATE_TIME ( #213, #209 ) ;
#7 = ADVANCED_FACE ( 'NONE', ( #115 ), #185, .T. ) ;
#8 = COORDINATED_UNIVERSAL_TIME_OFFSET ( 1, 0, .AHEAD. ) ;
#9 = DIRECTION ( 'NONE',  ( 0.0000000000000000000, 1.000000000000000000, 0.0000000000000000000 ) ) ;
#10 = PERSON_AND_ORGANIZATION_ROLE ( 'design_supplier' ) ;
#11 = PLANE ( 'NONE',  #145 ) ;
#12 = AXIS2_PLACEMENT_3D ( 'NONE', #107, #220, #188 ) ;
#13 = AXIS2_PLACEMENT_3D ( 'NONE', #80, #17, #48 ) ;
#14 = LOCAL_TIME ( 11, 22, 55.00000000000000000, #75 ) ;
#15 = CC_DESIGN_PERSON_AND_ORGANIZATION_ASSIGNMENT ( #146, #82, ( #171 ) ) ;
#16 = DIRECTION ( 'NONE',  ( 4.275831445896958607E-31, 1.000000000000000000, 1.224646799147353207E-16 ) ) ;
#17 = DIRECTION ( 'NONE',  ( -3.491481338843133355E-15, 1.224646799147353207E-16, -1.000000000000000000 ) ) ;
#18 = FACE_OUTER_BOUND ( 'NONE', #95, .T. ) ;
#19 = APPROVAL_PERSON_ORGANIZATION ( #164, #209, #192 ) ;
#20 =( NAMED_UNIT ( * ) SI_UNIT ( $, .STERADIAN. ) SOLID_ANGLE_UNIT ( ) );
#21 = LOCAL_TIME ( 11, 22, 55.00000000000000000, #60 ) ;
#22 = ORIENTED_EDGE ( 'NONE', *, *, #23, .T. ) ;
#23 = EDGE_CURVE ( 'NONE', #135, #135, #98, .T. ) ;
#24 = APPROVAL_STATUS ( 'not_yet_approved' ) ;
#25 = PERSON_AND_ORGANIZATION ( #198, #151 ) ;
#26 = EDGE_CURVE ( 'NONE', #83, #83, #210, .T. ) ;
#27 = APPROVAL_DATE_TIME ( #133, #64 ) ;
#28 = DIRECTION ( 'NONE',  ( -5.135813185032644414E-31, -1.000000000000000000, -1.445602896647343601E-16 ) ) ;
#29 = PERSON_AND_ORGANIZATION ( #198, #151 ) ;
#30 = FACE_OUTER_BOUND ( 'NONE', #211, .T. ) ;
#31 = DIRECTION ( 'NONE',  ( -3.491481338843133355E-15, 1.224646799147353207E-16, -1.000000000000000000 ) ) ;
#32 = CARTESIAN_POINT ( 'NONE',  ( 3.491481338843133355E-14, 1.124819836996388827E-32, 10.00000000000000000 ) ) ;
#33 = FACE_OUTER_BOUND ( 'NONE', #5, .T. ) ;
#34 = MANIFOLD_SOLID_BREP ( 'Corps-Déplacer/Copier1[1]', #52 ) ;
#35 = ADVANCED_FACE ( 'NONE', ( #219, #18 ), #68, .T. ) ;
#36 = MECHANICAL_CONTEXT ( 'NONE', #153, 'mechanical' ) ;
#37 = CC_DESIGN_PERSON_AND_ORGANIZATION_ASSIGNMENT ( #25, #122, ( #221 ) ) ;
#38 = ORIENTED_EDGE ( 'NONE', *, *, #26, .T. ) ;
#39 =( LENGTH_UNIT ( ) NAMED_UNIT ( * ) SI_UNIT ( .MILLI., .METRE. ) );
#40 = ORIENTED_EDGE ( 'NONE', *, *, #92, .T. ) ;
#41 = ORIENTED_EDGE ( 'NONE', *, *, #141, .T. ) ;
#42 = ORIENTED_EDGE ( 'NONE', *, *, #144, .F. ) ;
#43 = CC_DESIGN_PERSON_AND_ORGANIZATION_ASSIGNMENT ( #96, #195, ( #93 ) ) ;
#44 = DATE_TIME_ROLE ( 'classification_date' ) ;
#45 = EDGE_LOOP ( 'NONE', ( #41 ) ) ;
#46 = CARTESIAN_POINT ( 'NONE',  ( 4.670731249239955081E-14, 1.499999999999996891, 13.37750598084982023 ) ) ;
#47 = FACE_OUTER_BOUND ( 'NONE', #131, .T. ) ;
#48 = DIRECTION ( 'NONE',  ( 0.0000000000000000000, 1.000000000000000000, 0.0000000000000000000 ) ) ;
#49 = DIRECTION ( 'NONE',  ( -3.491481338843133355E-15, 1.229791517316362731E-16, -1.000000000000000000 ) ) ;
#50 = DIRECTION ( 'NONE',  ( -3.491481338843133355E-15, 1.224646799147353207E-16, -1.000000000000000000 ) ) ;
#51 = PRODUCT_DEFINITION_SHAPE ( 'NONE', 'NONE',  #222 ) ;
#52 = CLOSED_SHELL ( 'NONE', ( #129, #189, #81, #35, #187 ) ) ;
#53 = CARTESIAN_POINT ( 'NONE',  ( 3.491481338843133355E-14, 0.5949999999999987521, 10.00000000000000000 ) ) ;
#54 = EDGE_LOOP ( 'NONE', ( #121 ) ) ;
#55 = ORIENTED_EDGE ( 'NONE', *, *, #193, .T. ) ;
#56 = CLOSED_SHELL ( 'NONE', ( #191, #69, #7 ) ) ;
#57 = APPROVAL_ROLE ( '' ) ;
#58 = CC_DESIGN_SECURITY_CLASSIFICATION ( #93, ( #171 ) ) ;
#59 = CALENDAR_DATE ( 2021, 28, 10 ) ;
#60 = COORDINATED_UNIVERSAL_TIME_OFFSET ( 1, 0, .AHEAD. ) ;
#61 = PERSON_AND_ORGANIZATION ( #198, #151 ) ;
#62 = DIRECTION ( 'NONE',  ( -3.491481338843133355E-15, 1.224646799147353207E-16, -1.000000000000000000 ) ) ;
#63 = DATE_AND_TIME ( #215, #130 ) ;
#64 = APPROVAL ( #24, 'UNSPECIFIED' ) ;
#65 = VERTEX_POINT ( 'NONE', #123 ) ;
#66 = DIRECTION ( 'NONE',  ( 0.0000000000000000000, 1.000000000000000000, 0.0000000000000000000 ) ) ;
#67 = DIRECTION ( 'NONE',  ( 3.491481338843133355E-15, -1.224646799147353207E-16, 1.000000000000000000 ) ) ;
#68 = CONICAL_SURFACE ( 'NONE', #190, 1.499999999999998668, 0.2617993877991501850 ) ;
#69 = ADVANCED_FACE ( 'NONE', ( #30, #47 ), #102, .T. ) ;
#70 = FACE_OUTER_BOUND ( 'NONE', #54, .T. ) ;
#71 = DESIGN_CONTEXT ( 'detailed design', #77, 'design' ) ;
#72 = PRODUCT_RELATED_PRODUCT_CATEGORY ( 'detail', '', ( #221 ) ) ;
#73 = APPROVAL_PERSON_ORGANIZATION ( #29, #64, #57 ) ;
#74 = DIRECTION ( 'NONE',  ( 1.000000000000000000, 0.0000000000000000000, 0.0000000000000000000 ) ) ;
#75 = COORDINATED_UNIVERSAL_TIME_OFFSET ( 1, 0, .AHEAD. ) ;
#76 = ORIENTED_EDGE ( 'NONE', *, *, #144, .T. ) ;
#77 = APPLICATION_CONTEXT ( 'configuration controlled 3d designs of mechanical parts and assemblies' ) ;
#78 = APPLICATION_PROTOCOL_DEFINITION ( 'international standard', 'config_control_design', 1994, #77 ) ;
#79 = CALENDAR_DATE ( 2021, 28, 10 ) ;
#80 = CARTESIAN_POINT ( 'NONE',  ( 1.326762908760390423E-13, -4.653657836759941941E-15, 38.00000000000000000 ) ) ;
#81 = ADVANCED_FACE ( 'NONE', ( #70 ), #168, .F. ) ;
#82 = PERSON_AND_ORGANIZATION_ROLE ( 'creator' ) ;
#83 = VERTEX_POINT ( 'NONE', #216 ) ;
#84 = CIRCLE ( 'NONE', #132, 0.5949999999999999734 ) ;
#85 =( GEOMETRIC_REPRESENTATION_CONTEXT ( 3 ) GLOBAL_UNCERTAINTY_ASSIGNED_CONTEXT ( ( #203 ) ) GLOBAL_UNIT_ASSIGNED_CONTEXT ( ( #39, #99, #20 ) ) REPRESENTATION_CONTEXT ( 'NONE', 'WORKASPACE' ) );
#86 = DIRECTION ( 'NONE',  ( 4.293794133377662246E-31, 1.000000000000000000, 1.229791517316362731E-16 ) ) ;
#87 = DIRECTION ( 'NONE',  ( -4.275831445896958607E-31, -1.000000000000000000, -1.224646799147353207E-16 ) ) ;
#88 = AXIS2_PLACEMENT_3D ( 'NONE', #108, #50, #167 ) ;
#89 = CYLINDRICAL_SURFACE ( 'NONE', #178, 1.499999999999998224 ) ;
#90 = CC_DESIGN_APPROVAL ( #209, ( #222 ) ) ;
#91 = VERTEX_POINT ( 'NONE', #158 ) ;
#92 = EDGE_CURVE ( 'NONE', #65, #65, #118, .T. ) ;
#93 = SECURITY_CLASSIFICATION ( '', '', #150 ) ;
#94 = APPROVAL_STATUS ( 'not_yet_approved' ) ;
#95 = EDGE_LOOP ( 'NONE', ( #22 ) ) ;
#96 = PERSON_AND_ORGANIZATION ( #198, #151 ) ;
#97 = DIRECTION ( 'NONE',  ( 3.491481338843133355E-15, -1.224646799147353207E-16, 1.000000000000000000 ) ) ;
#98 = CIRCLE ( 'NONE', #12, 1.499999999999998668 ) ;
#99 =( NAMED_UNIT ( * ) PLANE_ANGLE_UNIT ( ) SI_UNIT ( $, .RADIAN. ) );
#100 = DIRECTION ( 'NONE',  ( -3.491481338843133355E-15, 1.229791517316362731E-16, -1.000000000000000000 ) ) ;
#101 = CALENDAR_DATE ( 2021, 28, 10 ) ;
#102 = CYLINDRICAL_SURFACE ( 'NONE', #205, 0.5949999999999999734 ) ;
#103 = CC_DESIGN_DATE_AND_TIME_ASSIGNMENT ( #177, #44, ( #93 ) ) ;
#104 = CARTESIAN_POINT ( 'NONE',  ( 1.316288464743861212E-13, -4.616918432785521081E-15, 37.69999999999999574 ) ) ;
#105 = AXIS2_PLACEMENT_3D ( 'NONE', #32, #149, #87 ) ;
#106 = CC_DESIGN_APPROVAL ( #114, ( #93 ) ) ;
#107 = CARTESIAN_POINT ( 'NONE',  ( 4.670731249239955081E-14, -1.645154337809801778E-15, 13.37750598084982023 ) ) ;
#108 = CARTESIAN_POINT ( 'NONE',  ( 1.326762908760390423E-13, 8.998558695971077224E-33, 38.00000000000000000 ) ) ;
#109 = APPLICATION_PROTOCOL_DEFINITION ( 'international standard', 'config_control_design', 1994, #153 ) ;
#110 = CC_DESIGN_DATE_AND_TIME_ASSIGNMENT ( #163, #4, ( #222 ) ) ;
#111 = VERTEX_POINT ( 'NONE', #53 ) ;
#112 = PERSON_AND_ORGANIZATION ( #198, #151 ) ;
#113 = ORIENTED_EDGE ( 'NONE', *, *, #26, .F. ) ;
#114 = APPROVAL ( #94, 'UNSPECIFIED' ) ;
#115 = FACE_OUTER_BOUND ( 'NONE', #3, .T. ) ;
#116 = COORDINATED_UNIVERSAL_TIME_OFFSET ( 1, 0, .AHEAD. ) ;
#117 = CARTESIAN_POINT ( 'NONE',  ( 1.906192921252232855E-15, -6.686024735685322183E-17, 0.5459553513993090634 ) ) ;
#118 = CIRCLE ( 'NONE', #206, 1.499999999999999778 ) ;
#119 = AXIS2_PLACEMENT_3D ( 'NONE', #199, #100, #9 ) ;
#120 = APPROVAL_PERSON_ORGANIZATION ( #61, #114, #160 ) ;
#121 = ORIENTED_EDGE ( 'NONE', *, *, #141, .F. ) ;
#122 = PERSON_AND_ORGANIZATION_ROLE ( 'design_owner' ) ;
#123 = CARTESIAN_POINT ( 'NONE',  ( 1.316288464743861212E-13, 1.499999999999995337, 37.69999999999999574 ) ) ;
#124 = CARTESIAN_POINT ( 'NONE',  ( 3.491481338843133355E-14, -1.229791517316362583E-15, 10.00000000000000000 ) ) ;
#125 = PLANE ( 'NONE',  #105 ) ;
#126 = FACE_OUTER_BOUND ( 'NONE', #212, .T. ) ;
#127 = FACE_OUTER_BOUND ( 'NONE', #181, .T. ) ;
#128 = DIRECTION ( 'NONE',  ( 0.0000000000000000000, 0.0000000000000000000, 1.000000000000000000 ) ) ;
#129 = ADVANCED_FACE ( 'NONE', ( #127, #33 ), #89, .T. ) ;
#130 = LOCAL_TIME ( 11, 22, 55.00000000000000000, #148 ) ;
#131 = EDGE_LOOP ( 'NONE', ( #159 ) ) ;
#132 = AXIS2_PLACEMENT_3D ( 'NONE', #214, #62, #154 ) ;
#133 = DATE_AND_TIME ( #175, #14 ) ;
#134 = APPROVAL_DATE_TIME ( #63, #114 ) ;
#135 = VERTEX_POINT ( 'NONE', #46 ) ;
#136 = PERSON_AND_ORGANIZATION ( #198, #151 ) ;
#137 = VERTEX_POINT ( 'NONE', #204 ) ;
#138 = CARTESIAN_POINT ( 'NONE',  ( 3.491481338843133355E-14, 1.124819836996388827E-32, 10.00000000000000000 ) ) ;
#139 = DIRECTION ( 'NONE',  ( -3.491481338843133355E-15, 1.229791517316362731E-16, -1.000000000000000000 ) ) ;
#140 = CARTESIAN_POINT ( 'NONE',  ( 0.0000000000000000000, 0.0000000000000000000, 0.0000000000000000000 ) ) ;
#141 = EDGE_CURVE ( 'NONE', #137, #137, #174, .T. ) ;
#142 = CARTESIAN_POINT ( 'NONE',  ( 0.0000000000000000000, 0.0000000000000000000, 0.0000000000000000000 ) ) ;
#143 = CC_DESIGN_APPROVAL ( #64, ( #171 ) ) ;
#144 = EDGE_CURVE ( 'NONE', #111, #111, #223, .T. ) ;
#145 = AXIS2_PLACEMENT_3D ( 'NONE', #138, #67, #182 ) ;
#146 = PERSON_AND_ORGANIZATION ( #198, #151 ) ;
#147 = PERSON_AND_ORGANIZATION_ROLE ( 'creator' ) ;
#148 = COORDINATED_UNIVERSAL_TIME_OFFSET ( 1, 0, .AHEAD. ) ;
#149 = DIRECTION ( 'NONE',  ( 3.491481338843133355E-15, -1.224646799147353207E-16, 1.000000000000000000 ) ) ;
#150 = SECURITY_CLASSIFICATION_LEVEL ( 'unclassified' ) ;
#151 = ORGANIZATION ( 'UNSPECIFIED', 'UNSPECIFIED', '' ) ;
#152 = DIRECTION ( 'NONE',  ( 0.0000000000000000000, -1.000000000000000000, 0.0000000000000000000 ) ) ;
#153 = APPLICATION_CONTEXT ( 'configuration controlled 3d designs of mechanical parts and assemblies' ) ;
#154 = DIRECTION ( 'NONE',  ( -4.855285574085469023E-31, -1.000000000000000000, -1.366641393889291440E-16 ) ) ;
#155 = AXIS2_PLACEMENT_3D ( 'NONE', #156, #186, #194 ) ;
#156 = CARTESIAN_POINT ( 'NONE',  ( 1.326762908760390423E-13, -4.653657836759941941E-15, 38.00000000000000000 ) ) ;
#157 = CC_DESIGN_PERSON_AND_ORGANIZATION_ASSIGNMENT ( #136, #10, ( #171 ) ) ;
#158 = CARTESIAN_POINT ( 'NONE',  ( 7.561231920967206629E-16, -0.5949999999999999734, 0.2165622893883930589 ) ) ;
#159 = ORIENTED_EDGE ( 'NONE', *, *, #193, .F. ) ;
#160 = APPROVAL_ROLE ( '' ) ;
#161 = ORIENTED_EDGE ( 'NONE', *, *, #92, .F. ) ;
#162 = AXIS2_PLACEMENT_3D ( 'NONE', #124, #139, #165 ) ;
#163 = DATE_AND_TIME ( #79, #207 ) ;
#164 = PERSON_AND_ORGANIZATION ( #198, #151 ) ;
#165 = DIRECTION ( 'NONE',  ( 0.0000000000000000000, 1.000000000000000000, 0.0000000000000000000 ) ) ;
#166 = APPROVAL_STATUS ( 'not_yet_approved' ) ;
#167 = DIRECTION ( 'NONE',  ( 4.275831445896958607E-31, 1.000000000000000000, 1.224646799147353207E-16 ) ) ;
#168 = PLANE ( 'NONE',  #88 ) ;
#169 = FACE_OUTER_BOUND ( 'NONE', #176, .T. ) ;
#170 = CARTESIAN_POINT ( 'NONE',  ( 4.670731249239955081E-14, -1.645154337809801778E-15, 13.37750598084982023 ) ) ;
#171 = PRODUCT_DEFINITION_FORMATION_WITH_SPECIFIED_SOURCE ( 'ANY', '', #221, .NOT_KNOWN. ) ;
#172 = MANIFOLD_SOLID_BREP ( 'Corps-Déplacer/Copier1[2]', #56 ) ;
#173 = EDGE_LOOP ( 'NONE', ( #42 ) ) ;
#174 = CIRCLE ( 'NONE', #155, 1.199999999999999956 ) ;
#175 = CALENDAR_DATE ( 2021, 28, 10 ) ;
#176 = EDGE_LOOP ( 'NONE', ( #76 ) ) ;
#177 = DATE_AND_TIME ( #59, #21 ) ;
#178 = AXIS2_PLACEMENT_3D ( 'NONE', #200, #31, #16 ) ;
#179 = LOCAL_TIME ( 11, 22, 55.00000000000000000, #116 ) ;
#180 = SHAPE_DEFINITION_REPRESENTATION ( #51, #217 ) ;
#181 = EDGE_LOOP ( 'NONE', ( #208 ) ) ;
#182 = DIRECTION ( 'NONE',  ( -4.275831445896958607E-31, -1.000000000000000000, -1.224646799147353207E-16 ) ) ;
#183 = CC_DESIGN_PERSON_AND_ORGANIZATION_ASSIGNMENT ( #112, #147, ( #222 ) ) ;
#184 = DIRECTION ( 'NONE',  ( 3.491481338843133355E-15, -1.229791517316362731E-16, 1.000000000000000000 ) ) ;
#185 = CONICAL_SURFACE ( 'NONE', #201, 1.499999999999995559, 1.221730476396026388 ) ;
#186 = DIRECTION ( 'NONE',  ( -3.491481338843133355E-15, 1.224646799147353207E-16, -1.000000000000000000 ) ) ;
#187 = ADVANCED_FACE ( 'NONE', ( #169 ), #11, .F. ) ;
#188 = DIRECTION ( 'NONE',  ( 0.0000000000000000000, 1.000000000000000000, 0.0000000000000000000 ) ) ;
#189 = ADVANCED_FACE ( 'NONE', ( #197, #196 ), #202, .T. ) ;
#190 = AXIS2_PLACEMENT_3D ( 'NONE', #170, #184, #152 ) ;
#191 = ADVANCED_FACE ( 'NONE', ( #126 ), #125, .T. ) ;
#192 = APPROVAL_ROLE ( '' ) ;
#193 = EDGE_CURVE ( 'NONE', #91, #91, #84, .T. ) ;
#194 = DIRECTION ( 'NONE',  ( 0.0000000000000000000, 1.000000000000000000, 0.0000000000000000000 ) ) ;
#195 = PERSON_AND_ORGANIZATION_ROLE ( 'classification_officer' ) ;
#196 = FACE_BOUND ( 'NONE', #45, .T. ) ;
#197 = FACE_OUTER_BOUND ( 'NONE', #2, .T. ) ;
#198 = PERSON ( 'UNSPECIFIED', 'UNSPECIFIED', 'UNSPECIFIED', ('UNSPECIFIED'), ('UNSPECIFIED'), ('UNSPECIFIED') ) ;
#199 = CARTESIAN_POINT ( 'NONE',  ( 3.491481338843133355E-14, -1.229791517316362583E-15, 10.00000000000000000 ) ) ;
#200 = CARTESIAN_POINT ( 'NONE',  ( 0.0000000000000000000, 0.0000000000000000000, 0.0000000000000000000 ) ) ;
#201 = AXIS2_PLACEMENT_3D ( 'NONE', #117, #97, #28 ) ;
#202 = CONICAL_SURFACE ( 'NONE', #13, 1.199999999999999956, 0.7853981633974453924 ) ;
#203 = UNCERTAINTY_MEASURE_WITH_UNIT (LENGTH_MEASURE( 1.000000000000000082E-05 ), #39, 'distance_accuracy_value', 'NONE');
#204 = CARTESIAN_POINT ( 'NONE',  ( 1.326762908760390423E-13, 1.199999999999995293, 38.00000000000000000 ) ) ;
#205 = AXIS2_PLACEMENT_3D ( 'NONE', #140, #49, #86 ) ;
#206 = AXIS2_PLACEMENT_3D ( 'NONE', #104, #218, #66 ) ;
#207 = LOCAL_TIME ( 11, 22, 55.00000000000000000, #8 ) ;
#208 = ORIENTED_EDGE ( 'NONE', *, *, #23, .F. ) ;
#209 = APPROVAL ( #166, 'UNSPECIFIED' ) ;
#210 = CIRCLE ( 'NONE', #162, 0.5949999999999999734 ) ;
#211 = EDGE_LOOP ( 'NONE', ( #38 ) ) ;
#212 = EDGE_LOOP ( 'NONE', ( #113 ) ) ;
#213 = DATE_AND_TIME ( #101, #179 ) ;
#214 = CARTESIAN_POINT ( 'NONE',  ( 7.561231920967209588E-16, -2.652123145155183896E-17, 0.2165622893883931421 ) ) ;
#215 = CALENDAR_DATE ( 2021, 28, 10 ) ;
#216 = CARTESIAN_POINT ( 'NONE',  ( 3.491481338843133355E-14, 0.5949999999999987521, 10.00000000000000000 ) ) ;
#217 = ADVANCED_BREP_SHAPE_REPRESENTATION ( '962909', ( #34, #172, #1 ), #85 ) ;
#218 = DIRECTION ( 'NONE',  ( -3.491481338843133355E-15, 1.224646799147353207E-16, -1.000000000000000000 ) ) ;
#219 = FACE_BOUND ( 'NONE', #173, .T. ) ;
#220 = DIRECTION ( 'NONE',  ( -3.491481338843133355E-15, 1.229791517316362731E-16, -1.000000000000000000 ) ) ;
#221 = PRODUCT ( '962909', '962909', '', ( #36 ) ) ;
#222 = PRODUCT_DEFINITION ( 'UNKNOWN', '', #171, #71 ) ;
#223 = CIRCLE ( 'NONE', #119, 0.5949999999999999734 ) ;
ENDSEC;
END-ISO-10303-21;
