ISO-10303-21;
HEADER;
FILE_DESCRIPTION (( 'STEP AP203' ),
    '1' );
FILE_NAME ('962908.step',
    '2021-10-28T09:22:55',
    ( '' ),
    ( '' ),
    'SwSTEP 2.0',
    'SolidWorks 2019',
    '' );
FILE_SCHEMA (( 'CONFIG_CONTROL_DESIGN' ));
ENDSEC;

DATA;
#1 = CARTESIAN_POINT ( 'NONE',  ( 1.316288464743861212E-13, 1.499999999999995337, 37.69999999999999574 ) ) ;
#2 = ADVANCED_FACE ( 'NONE', ( #201, #41 ), #112, .T. ) ;
#3 = DIRECTION ( 'NONE',  ( -3.491481338843133355E-15, 1.229791517316362731E-16, -1.000000000000000000 ) ) ;
#4 = FACE_OUTER_BOUND ( 'NONE', #31, .T. ) ;
#5 = FACE_OUTER_BOUND ( 'NONE', #171, .T. ) ;
#6 = DIRECTION ( 'NONE',  ( -4.275831445896958607E-31, -1.000000000000000000, -1.224646799147353207E-16 ) ) ;
#7 = PLANE ( 'NONE',  #9 ) ;
#8 = CONICAL_SURFACE ( 'NONE', #55, 1.499999999999995559, 1.221730476396026388 ) ;
#9 = AXIS2_PLACEMENT_3D ( 'NONE', #75, #100, #53 ) ;
#10 = DATE_TIME_ROLE ( 'creation_date' ) ;
#11 = EDGE_LOOP ( 'NONE', ( #217 ) ) ;
#12 = PERSON_AND_ORGANIZATION_ROLE ( 'classification_officer' ) ;
#13 = CALENDAR_DATE ( 2021, 28, 10 ) ;
#14 = EDGE_CURVE ( 'NONE', #197, #197, #104, .T. ) ;
#15 = APPROVAL_PERSON_ORGANIZATION ( #186, #145, #163 ) ;
#16 = FACE_BOUND ( 'NONE', #200, .T. ) ;
#17 = APPROVAL_PERSON_ORGANIZATION ( #203, #159, #115 ) ;
#18 = CARTESIAN_POINT ( 'NONE',  ( 0.0000000000000000000, 0.0000000000000000000, 0.0000000000000000000 ) ) ;
#19 = DIRECTION ( 'NONE',  ( -3.491481338843133355E-15, 1.229791517316362731E-16, -1.000000000000000000 ) ) ;
#20 = CARTESIAN_POINT ( 'NONE',  ( 4.677246442115076539E-14, -1.647449160022472805E-15, 13.39616623488766578 ) ) ;
#21 = AXIS2_PLACEMENT_3D ( 'NONE', #58, #78, #173 ) ;
#22 = APPLICATION_CONTEXT ( 'configuration controlled 3d designs of mechanical parts and assemblies' ) ;
#23 = CIRCLE ( 'NONE', #82, 1.499999999999998668 ) ;
#24 = APPROVAL_STATUS ( 'not_yet_approved' ) ;
#25 = PERSON_AND_ORGANIZATION ( #54, #84 ) ;
#26 = CARTESIAN_POINT ( 'NONE',  ( 0.0000000000000000000, 0.0000000000000000000, 0.0000000000000000000 ) ) ;
#27 = ADVANCED_FACE ( 'NONE', ( #5 ), #52, .F. ) ;
#28 = CONICAL_SURFACE ( 'NONE', #218, 1.199999999999999956, 0.7853981633974453924 ) ;
#29 = PERSON_AND_ORGANIZATION_ROLE ( 'creator' ) ;
#30 = DIRECTION ( 'NONE',  ( -3.491481338843133355E-15, 1.224646799147353207E-16, -1.000000000000000000 ) ) ;
#31 = EDGE_LOOP ( 'NONE', ( #153 ) ) ;
#32 = LOCAL_TIME ( 11, 22, 55.00000000000000000, #48 ) ;
#33 = DESIGN_CONTEXT ( 'detailed design', #22, 'design' ) ;
#34 = DIRECTION ( 'NONE',  ( 3.491481338843133355E-15, -1.224646799147353207E-16, 1.000000000000000000 ) ) ;
#35 = FACE_OUTER_BOUND ( 'NONE', #96, .T. ) ;
#36 = CC_DESIGN_PERSON_AND_ORGANIZATION_ASSIGNMENT ( #99, #12, ( #161 ) ) ;
#37 = VERTEX_POINT ( 'NONE', #178 ) ;
#38 = DIRECTION ( 'NONE',  ( -3.491481338843133355E-15, 1.229791517316362731E-16, -1.000000000000000000 ) ) ;
#39 = CARTESIAN_POINT ( 'NONE',  ( 7.497692156925465074E-16, -0.5899999999999999689, 0.2147424382170620150 ) ) ;
#40 = EDGE_LOOP ( 'NONE', ( #164 ) ) ;
#41 = FACE_OUTER_BOUND ( 'NONE', #40, .T. ) ;
#42 = COORDINATED_UNIVERSAL_TIME_OFFSET ( 1, 0, .AHEAD. ) ;
#43 = AXIS2_PLACEMENT_3D ( 'NONE', #67, #223, #142 ) ;
#44 = ORIENTED_EDGE ( 'NONE', *, *, #179, .F. ) ;
#45 = CALENDAR_DATE ( 2021, 28, 10 ) ;
#46 = CALENDAR_DATE ( 2021, 28, 10 ) ;
#47 = ADVANCED_BREP_SHAPE_REPRESENTATION ( '962908', ( #221, #147, #211 ), #188 ) ;
#48 = COORDINATED_UNIVERSAL_TIME_OFFSET ( 1, 0, .AHEAD. ) ;
#49 = CONICAL_SURFACE ( 'NONE', #195, 1.499999999999998668, 0.2617993877991500740 ) ;
#50 = LOCAL_TIME ( 11, 22, 55.00000000000000000, #151 ) ;
#51 = DIRECTION ( 'NONE',  ( 0.0000000000000000000, 1.000000000000000000, 0.0000000000000000000 ) ) ;
#52 = PLANE ( 'NONE',  #97 ) ;
#53 = DIRECTION ( 'NONE',  ( -4.275831445896958607E-31, -1.000000000000000000, -1.224646799147353207E-16 ) ) ;
#54 = PERSON ( 'UNSPECIFIED', 'UNSPECIFIED', 'UNSPECIFIED', ('UNSPECIFIED'), ('UNSPECIFIED'), ('UNSPECIFIED') ) ;
#55 = AXIS2_PLACEMENT_3D ( 'NONE', #141, #34, #210 ) ;
#56 = VERTEX_POINT ( 'NONE', #1 ) ;
#57 = ADVANCED_FACE ( 'NONE', ( #4 ), #7, .F. ) ;
#58 = CARTESIAN_POINT ( 'NONE',  ( 1.326762908760390423E-13, -4.653657836759941941E-15, 38.00000000000000000 ) ) ;
#59 = FACE_OUTER_BOUND ( 'NONE', #116, .T. ) ;
#60 = LOCAL_TIME ( 11, 22, 55.00000000000000000, #155 ) ;
#61 = ORIENTED_EDGE ( 'NONE', *, *, #14, .T. ) ;
#62 = APPROVAL_DATE_TIME ( #187, #150 ) ;
#63 = CC_DESIGN_DATE_AND_TIME_ASSIGNMENT ( #113, #10, ( #157 ) ) ;
#64 = CIRCLE ( 'NONE', #43, 1.499999999999999778 ) ;
#65 = MECHANICAL_CONTEXT ( 'NONE', #91, 'mechanical' ) ;
#66 = CIRCLE ( 'NONE', #114, 0.5899999999999999689 ) ;
#67 = CARTESIAN_POINT ( 'NONE',  ( 1.316288464743861212E-13, -4.616918432785521081E-15, 37.69999999999999574 ) ) ;
#68 = CARTESIAN_POINT ( 'NONE',  ( 1.326762908760390423E-13, -4.653657836759941941E-15, 38.00000000000000000 ) ) ;
#69 = DIRECTION ( 'NONE',  ( 4.275831445896958607E-31, 1.000000000000000000, 1.224646799147353207E-16 ) ) ;
#70 = FACE_OUTER_BOUND ( 'NONE', #131, .T. ) ;
#71 = AXIS2_PLACEMENT_3D ( 'NONE', #109, #129, #6 ) ;
#72 = DIRECTION ( 'NONE',  ( 0.0000000000000000000, 1.000000000000000000, 0.0000000000000000000 ) ) ;
#73 = FACE_OUTER_BOUND ( 'NONE', #215, .T. ) ;
#74 = VERTEX_POINT ( 'NONE', #39 ) ;
#75 = CARTESIAN_POINT ( 'NONE',  ( 3.491481338843133355E-14, 1.124819836996388827E-32, 10.00000000000000000 ) ) ;
#76 = CC_DESIGN_PERSON_AND_ORGANIZATION_ASSIGNMENT ( #156, #206, ( #183 ) ) ;
#77 = DATE_TIME_ROLE ( 'classification_date' ) ;
#78 = DIRECTION ( 'NONE',  ( -3.491481338843133355E-15, 1.224646799147353207E-16, -1.000000000000000000 ) ) ;
#79 = PERSON_AND_ORGANIZATION ( #54, #84 ) ;
#80 = CC_DESIGN_PERSON_AND_ORGANIZATION_ASSIGNMENT ( #79, #205, ( #157 ) ) ;
#81 = DIRECTION ( 'NONE',  ( 0.0000000000000000000, 1.000000000000000000, 0.0000000000000000000 ) ) ;
#82 = AXIS2_PLACEMENT_3D ( 'NONE', #208, #38, #72 ) ;
#83 = EDGE_LOOP ( 'NONE', ( #93 ) ) ;
#84 = ORGANIZATION ( 'UNSPECIFIED', 'UNSPECIFIED', '' ) ;
#85 = CC_DESIGN_APPROVAL ( #145, ( #161 ) ) ;
#86 = DIRECTION ( 'NONE',  ( -3.491481338843133355E-15, 1.224646799147353207E-16, -1.000000000000000000 ) ) ;
#87 = PLANE ( 'NONE',  #71 ) ;
#88 =( LENGTH_UNIT ( ) NAMED_UNIT ( * ) SI_UNIT ( .MILLI., .METRE. ) );
#89 = DIRECTION ( 'NONE',  ( 4.293794133377661370E-31, 1.000000000000000000, 1.229791517316362731E-16 ) ) ;
#90 = CYLINDRICAL_SURFACE ( 'NONE', #175, 0.5899999999999999689 ) ;
#91 = APPLICATION_CONTEXT ( 'configuration controlled 3d designs of mechanical parts and assemblies' ) ;
#92 = CARTESIAN_POINT ( 'NONE',  ( 1.326762908760390423E-13, 1.199999999999995293, 38.00000000000000000 ) ) ;
#93 = ORIENTED_EDGE ( 'NONE', *, *, #102, .F. ) ;
#94 = APPLICATION_PROTOCOL_DEFINITION ( 'international standard', 'config_control_design', 1994, #91 ) ;
#95 = CALENDAR_DATE ( 2021, 28, 10 ) ;
#96 = EDGE_LOOP ( 'NONE', ( #110 ) ) ;
#97 = AXIS2_PLACEMENT_3D ( 'NONE', #166, #30, #177 ) ;
#98 = CC_DESIGN_APPROVAL ( #150, ( #198 ) ) ;
#99 = PERSON_AND_ORGANIZATION ( #54, #84 ) ;
#100 = DIRECTION ( 'NONE',  ( 3.491481338843133355E-15, -1.224646799147353207E-16, 1.000000000000000000 ) ) ;
#101 = CIRCLE ( 'NONE', #108, 0.5899999999999999689 ) ;
#102 = EDGE_CURVE ( 'NONE', #56, #56, #64, .T. ) ;
#103 = UNCERTAINTY_MEASURE_WITH_UNIT (LENGTH_MEASURE( 1.000000000000000082E-05 ), #88, 'distance_accuracy_value', 'NONE');
#104 = CIRCLE ( 'NONE', #21, 1.199999999999999956 ) ;
#105 = CARTESIAN_POINT ( 'NONE',  ( 3.491481338843133355E-14, -1.229791517316362583E-15, 10.00000000000000000 ) ) ;
#106 = CC_DESIGN_PERSON_AND_ORGANIZATION_ASSIGNMENT ( #134, #202, ( #198 ) ) ;
#107 = VERTEX_POINT ( 'NONE', #132 ) ;
#108 = AXIS2_PLACEMENT_3D ( 'NONE', #176, #19, #148 ) ;
#109 = CARTESIAN_POINT ( 'NONE',  ( 3.491481338843133355E-14, 1.124819836996388827E-32, 10.00000000000000000 ) ) ;
#110 = ORIENTED_EDGE ( 'NONE', *, *, #179, .T. ) ;
#111 =( NAMED_UNIT ( * ) PLANE_ANGLE_UNIT ( ) SI_UNIT ( $, .RADIAN. ) );
#112 = CYLINDRICAL_SURFACE ( 'NONE', #214, 1.499999999999998224 ) ;
#113 = DATE_AND_TIME ( #184, #32 ) ;
#114 = AXIS2_PLACEMENT_3D ( 'NONE', #105, #169, #51 ) ;
#115 = APPROVAL_ROLE ( '' ) ;
#116 = EDGE_LOOP ( 'NONE', ( #149 ) ) ;
#117 = DATE_AND_TIME ( #46, #130 ) ;
#118 = APPROVAL_ROLE ( '' ) ;
#119 = LOCAL_TIME ( 11, 22, 55.00000000000000000, #162 ) ;
#120 = ORIENTED_EDGE ( 'NONE', *, *, #143, .F. ) ;
#121 = CC_DESIGN_PERSON_AND_ORGANIZATION_ASSIGNMENT ( #25, #29, ( #198 ) ) ;
#122 = AXIS2_PLACEMENT_3D ( 'NONE', #124, #193, #139 ) ;
#123 = SHAPE_DEFINITION_REPRESENTATION ( #180, #47 ) ;
#124 = CARTESIAN_POINT ( 'NONE',  ( 7.497692156925468032E-16, -2.629836396036233496E-17, 0.2147424382170620982 ) ) ;
#125 = ADVANCED_FACE ( 'NONE', ( #212 ), #8, .T. ) ;
#126 = CARTESIAN_POINT ( 'NONE',  ( 3.491481338843133355E-14, 0.5899999999999987477, 10.00000000000000000 ) ) ;
#127 = CC_DESIGN_DATE_AND_TIME_ASSIGNMENT ( #117, #77, ( #161 ) ) ;
#128 = CARTESIAN_POINT ( 'NONE',  ( 0.0000000000000000000, 0.0000000000000000000, 0.0000000000000000000 ) ) ;
#129 = DIRECTION ( 'NONE',  ( 3.491481338843133355E-15, -1.224646799147353207E-16, 1.000000000000000000 ) ) ;
#130 = LOCAL_TIME ( 11, 22, 55.00000000000000000, #42 ) ;
#131 = EDGE_LOOP ( 'NONE', ( #120 ) ) ;
#132 = CARTESIAN_POINT ( 'NONE',  ( 3.491481338843133355E-14, 0.5899999999999987477, 10.00000000000000000 ) ) ;
#133 = EDGE_CURVE ( 'NONE', #160, #160, #66, .T. ) ;
#134 = PERSON_AND_ORGANIZATION ( #54, #84 ) ;
#135 = APPLICATION_PROTOCOL_DEFINITION ( 'international standard', 'config_control_design', 1994, #22 ) ;
#136 = CLOSED_SHELL ( 'NONE', ( #189, #199, #125 ) ) ;
#137 = APPROVAL_DATE_TIME ( #167, #159 ) ;
#138 = EDGE_LOOP ( 'NONE', ( #44 ) ) ;
#139 = DIRECTION ( 'NONE',  ( -4.896432062001447366E-31, -1.000000000000000000, -1.378223100617166733E-16 ) ) ;
#140 = ADVANCED_FACE ( 'NONE', ( #192, #16 ), #28, .T. ) ;
#141 = CARTESIAN_POINT ( 'NONE',  ( 1.906192921252232855E-15, -6.686024735685322183E-17, 0.5459553513993090634 ) ) ;
#142 = DIRECTION ( 'NONE',  ( 0.0000000000000000000, 1.000000000000000000, 0.0000000000000000000 ) ) ;
#143 = EDGE_CURVE ( 'NONE', #74, #74, #170, .T. ) ;
#144 = DIRECTION ( 'NONE',  ( -3.491481338843133355E-15, 1.224646799147353207E-16, -1.000000000000000000 ) ) ;
#145 = APPROVAL ( #168, 'UNSPECIFIED' ) ;
#146 = DIRECTION ( 'NONE',  ( 3.491481338843133355E-15, -1.229791517316362731E-16, 1.000000000000000000 ) ) ;
#147 = MANIFOLD_SOLID_BREP ( 'Corps-Déplacer/Copier1[2]', #136 ) ;
#148 = DIRECTION ( 'NONE',  ( 0.0000000000000000000, 1.000000000000000000, 0.0000000000000000000 ) ) ;
#149 = ORIENTED_EDGE ( 'NONE', *, *, #191, .F. ) ;
#150 = APPROVAL ( #24, 'UNSPECIFIED' ) ;
#151 = COORDINATED_UNIVERSAL_TIME_OFFSET ( 1, 0, .AHEAD. ) ;
#152 = DATE_AND_TIME ( #13, #60 ) ;
#153 = ORIENTED_EDGE ( 'NONE', *, *, #133, .T. ) ;
#154 = DIRECTION ( 'NONE',  ( 0.0000000000000000000, 0.0000000000000000000, 1.000000000000000000 ) ) ;
#155 = COORDINATED_UNIVERSAL_TIME_OFFSET ( 1, 0, .AHEAD. ) ;
#156 = PERSON_AND_ORGANIZATION ( #54, #84 ) ;
#157 = PRODUCT_DEFINITION ( 'UNKNOWN', '', #198, #33 ) ;
#158 = CC_DESIGN_APPROVAL ( #159, ( #157 ) ) ;
#159 = APPROVAL ( #207, 'UNSPECIFIED' ) ;
#160 = VERTEX_POINT ( 'NONE', #126 ) ;
#161 = SECURITY_CLASSIFICATION ( '', '', #181 ) ;
#162 = COORDINATED_UNIVERSAL_TIME_OFFSET ( 1, 0, .AHEAD. ) ;
#163 = APPROVAL_ROLE ( '' ) ;
#164 = ORIENTED_EDGE ( 'NONE', *, *, #102, .T. ) ;
#165 =( NAMED_UNIT ( * ) SI_UNIT ( $, .STERADIAN. ) SOLID_ANGLE_UNIT ( ) );
#166 = CARTESIAN_POINT ( 'NONE',  ( 1.326762908760390423E-13, 8.998558695971077224E-33, 38.00000000000000000 ) ) ;
#167 = DATE_AND_TIME ( #45, #119 ) ;
#168 = APPROVAL_STATUS ( 'not_yet_approved' ) ;
#169 = DIRECTION ( 'NONE',  ( -3.491481338843133355E-15, 1.229791517316362731E-16, -1.000000000000000000 ) ) ;
#170 = CIRCLE ( 'NONE', #122, 0.5899999999999999689 ) ;
#171 = EDGE_LOOP ( 'NONE', ( #190 ) ) ;
#172 = CLOSED_SHELL ( 'NONE', ( #2, #140, #27, #194, #57 ) ) ;
#173 = DIRECTION ( 'NONE',  ( 0.0000000000000000000, 1.000000000000000000, 0.0000000000000000000 ) ) ;
#174 = DIRECTION ( 'NONE',  ( 0.0000000000000000000, -1.000000000000000000, 0.0000000000000000000 ) ) ;
#175 = AXIS2_PLACEMENT_3D ( 'NONE', #128, #3, #89 ) ;
#176 = CARTESIAN_POINT ( 'NONE',  ( 3.491481338843133355E-14, -1.229791517316362583E-15, 10.00000000000000000 ) ) ;
#177 = DIRECTION ( 'NONE',  ( 4.275831445896958607E-31, 1.000000000000000000, 1.224646799147353207E-16 ) ) ;
#178 = CARTESIAN_POINT ( 'NONE',  ( 4.677246442115076539E-14, 1.499999999999996891, 13.39616623488766578 ) ) ;
#179 = EDGE_CURVE ( 'NONE', #37, #37, #23, .T. ) ;
#180 = PRODUCT_DEFINITION_SHAPE ( 'NONE', 'NONE',  #157 ) ;
#181 = SECURITY_CLASSIFICATION_LEVEL ( 'unclassified' ) ;
#182 = EDGE_LOOP ( 'NONE', ( #185 ) ) ;
#183 = PRODUCT ( '962908', '962908', '', ( #65 ) ) ;
#184 = CALENDAR_DATE ( 2021, 28, 10 ) ;
#185 = ORIENTED_EDGE ( 'NONE', *, *, #143, .T. ) ;
#186 = PERSON_AND_ORGANIZATION ( #54, #84 ) ;
#187 = DATE_AND_TIME ( #95, #50 ) ;
#188 =( GEOMETRIC_REPRESENTATION_CONTEXT ( 3 ) GLOBAL_UNCERTAINTY_ASSIGNED_CONTEXT ( ( #103 ) ) GLOBAL_UNIT_ASSIGNED_CONTEXT ( ( #88, #111, #165 ) ) REPRESENTATION_CONTEXT ( 'NONE', 'WORKASPACE' ) );
#189 = ADVANCED_FACE ( 'NONE', ( #59 ), #87, .T. ) ;
#190 = ORIENTED_EDGE ( 'NONE', *, *, #14, .F. ) ;
#191 = EDGE_CURVE ( 'NONE', #107, #107, #101, .T. ) ;
#192 = FACE_OUTER_BOUND ( 'NONE', #83, .T. ) ;
#193 = DIRECTION ( 'NONE',  ( -3.491481338843133355E-15, 1.224646799147353207E-16, -1.000000000000000000 ) ) ;
#194 = ADVANCED_FACE ( 'NONE', ( #196, #35 ), #49, .T. ) ;
#195 = AXIS2_PLACEMENT_3D ( 'NONE', #20, #146, #174 ) ;
#196 = FACE_BOUND ( 'NONE', #11, .T. ) ;
#197 = VERTEX_POINT ( 'NONE', #92 ) ;
#198 = PRODUCT_DEFINITION_FORMATION_WITH_SPECIFIED_SOURCE ( 'ANY', '', #183, .NOT_KNOWN. ) ;
#199 = ADVANCED_FACE ( 'NONE', ( #73, #70 ), #90, .T. ) ;
#200 = EDGE_LOOP ( 'NONE', ( #61 ) ) ;
#201 = FACE_OUTER_BOUND ( 'NONE', #138, .T. ) ;
#202 = PERSON_AND_ORGANIZATION_ROLE ( 'design_supplier' ) ;
#203 = PERSON_AND_ORGANIZATION ( #54, #84 ) ;
#204 = ORIENTED_EDGE ( 'NONE', *, *, #191, .T. ) ;
#205 = PERSON_AND_ORGANIZATION_ROLE ( 'creator' ) ;
#206 = PERSON_AND_ORGANIZATION_ROLE ( 'design_owner' ) ;
#207 = APPROVAL_STATUS ( 'not_yet_approved' ) ;
#208 = CARTESIAN_POINT ( 'NONE',  ( 4.677246442115076539E-14, -1.647449160022472805E-15, 13.39616623488766578 ) ) ;
#209 = PRODUCT_RELATED_PRODUCT_CATEGORY ( 'detail', '', ( #183 ) ) ;
#210 = DIRECTION ( 'NONE',  ( -5.135813185032644414E-31, -1.000000000000000000, -1.445602896647343601E-16 ) ) ;
#211 = AXIS2_PLACEMENT_3D ( 'NONE', #26, #154, #220 ) ;
#212 = FACE_OUTER_BOUND ( 'NONE', #182, .T. ) ;
#213 = APPROVAL_PERSON_ORGANIZATION ( #222, #150, #118 ) ;
#214 = AXIS2_PLACEMENT_3D ( 'NONE', #18, #86, #69 ) ;
#215 = EDGE_LOOP ( 'NONE', ( #204 ) ) ;
#216 = APPROVAL_DATE_TIME ( #152, #145 ) ;
#217 = ORIENTED_EDGE ( 'NONE', *, *, #133, .F. ) ;
#218 = AXIS2_PLACEMENT_3D ( 'NONE', #68, #144, #81 ) ;
#219 = CC_DESIGN_SECURITY_CLASSIFICATION ( #161, ( #198 ) ) ;
#220 = DIRECTION ( 'NONE',  ( 1.000000000000000000, 0.0000000000000000000, 0.0000000000000000000 ) ) ;
#221 = MANIFOLD_SOLID_BREP ( 'Corps-Déplacer/Copier1[1]', #172 ) ;
#222 = PERSON_AND_ORGANIZATION ( #54, #84 ) ;
#223 = DIRECTION ( 'NONE',  ( -3.491481338843133355E-15, 1.224646799147353207E-16, -1.000000000000000000 ) ) ;
ENDSEC;
END-ISO-10303-21;
