ISO-10303-21;
HEADER;
FILE_DESCRIPTION (( 'STEP AP203' ),
    '1' );
FILE_NAME ('962907.step',
    '2021-10-28T09:22:54',
    ( '' ),
    ( '' ),
    'SwSTEP 2.0',
    'SolidWorks 2019',
    '' );
FILE_SCHEMA (( 'CONFIG_CONTROL_DESIGN' ));
ENDSEC;

DATA;
#1 = CARTESIAN_POINT ( 'NONE',  ( 7.434152392883724505E-16, -0.5849999999999999645, 0.2129225870457309988 ) ) ;
#2 = AXIS2_PLACEMENT_3D ( 'NONE', #83, #32, #176 ) ;
#3 = DIRECTION ( 'NONE',  ( -3.491481338843133355E-15, 1.224646799147353207E-16, -1.000000000000000000 ) ) ;
#4 = CARTESIAN_POINT ( 'NONE',  ( 1.326762908760390423E-13, -4.653657836759941941E-15, 38.00000000000000000 ) ) ;
#5 = PLANE ( 'NONE',  #180 ) ;
#6 =( NAMED_UNIT ( * ) SI_UNIT ( $, .STERADIAN. ) SOLID_ANGLE_UNIT ( ) );
#7 = PERSON_AND_ORGANIZATION ( #104, #107 ) ;
#8 = ADVANCED_FACE ( 'NONE', ( #150, #131 ), #183, .T. ) ;
#9 = AXIS2_PLACEMENT_3D ( 'NONE', #46, #78, #80 ) ;
#10 = EDGE_CURVE ( 'NONE', #156, #156, #153, .T. ) ;
#11 = ORIENTED_EDGE ( 'NONE', *, *, #202, .T. ) ;
#12 = EDGE_LOOP ( 'NONE', ( #152 ) ) ;
#13 = APPROVAL_DATE_TIME ( #130, #122 ) ;
#14 = DIRECTION ( 'NONE',  ( 0.0000000000000000000, 1.000000000000000000, 0.0000000000000000000 ) ) ;
#15 = CARTESIAN_POINT ( 'NONE',  ( 1.906192921252232855E-15, -6.686024735685322183E-17, 0.5459553513993090634 ) ) ;
#16 = FACE_OUTER_BOUND ( 'NONE', #27, .T. ) ;
#17 = DIRECTION ( 'NONE',  ( 4.293794133377662246E-31, 1.000000000000000000, 1.229791517316362977E-16 ) ) ;
#18 = CALENDAR_DATE ( 2021, 28, 10 ) ;
#19 = AXIS2_PLACEMENT_3D ( 'NONE', #214, #64, #175 ) ;
#20 = DIRECTION ( 'NONE',  ( 0.0000000000000000000, 0.0000000000000000000, 1.000000000000000000 ) ) ;
#21 = DATE_TIME_ROLE ( 'creation_date' ) ;
#22 = CC_DESIGN_PERSON_AND_ORGANIZATION_ASSIGNMENT ( #199, #112, ( #187 ) ) ;
#23 = APPROVAL_ROLE ( '' ) ;
#24 = COORDINATED_UNIVERSAL_TIME_OFFSET ( 1, 0, .AHEAD. ) ;
#25 = CONICAL_SURFACE ( 'NONE', #217, 1.499999999999995559, 1.221730476396026388 ) ;
#26 = ORIENTED_EDGE ( 'NONE', *, *, #202, .F. ) ;
#27 = EDGE_LOOP ( 'NONE', ( #201 ) ) ;
#28 = CARTESIAN_POINT ( 'NONE',  ( 1.316288464743861212E-13, -4.616918432785521081E-15, 37.69999999999999574 ) ) ;
#29 = CYLINDRICAL_SURFACE ( 'NONE', #166, 1.499999999999998224 ) ;
#30 = DIRECTION ( 'NONE',  ( -3.491481338843133355E-15, 1.229791517316362731E-16, -1.000000000000000000 ) ) ;
#31 = CLOSED_SHELL ( 'NONE', ( #126, #192, #218, #95, #144 ) ) ;
#32 = DIRECTION ( 'NONE',  ( -3.491481338843133355E-15, 1.229791517316362731E-16, -1.000000000000000000 ) ) ;
#33 = FACE_BOUND ( 'NONE', #132, .T. ) ;
#34 = DATE_AND_TIME ( #53, #86 ) ;
#35 = AXIS2_PLACEMENT_3D ( 'NONE', #41, #30, #17 ) ;
#36 = PERSON_AND_ORGANIZATION_ROLE ( 'creator' ) ;
#37 = CC_DESIGN_PERSON_AND_ORGANIZATION_ASSIGNMENT ( #178, #108, ( #222 ) ) ;
#38 = VERTEX_POINT ( 'NONE', #161 ) ;
#39 = CIRCLE ( 'NONE', #90, 0.5849999999999999645 ) ;
#40 = COORDINATED_UNIVERSAL_TIME_OFFSET ( 1, 0, .AHEAD. ) ;
#41 = CARTESIAN_POINT ( 'NONE',  ( 0.0000000000000000000, 0.0000000000000000000, 0.0000000000000000000 ) ) ;
#42 = CC_DESIGN_APPROVAL ( #122, ( #116 ) ) ;
#43 = DATE_TIME_ROLE ( 'classification_date' ) ;
#44 = ORIENTED_EDGE ( 'NONE', *, *, #135, .F. ) ;
#45 = CC_DESIGN_APPROVAL ( #162, ( #106 ) ) ;
#46 = CARTESIAN_POINT ( 'NONE',  ( 1.326762908760390423E-13, 8.998558695971077224E-33, 38.00000000000000000 ) ) ;
#47 = EDGE_CURVE ( 'NONE', #48, #48, #148, .T. ) ;
#48 = VERTEX_POINT ( 'NONE', #189 ) ;
#49 = FACE_OUTER_BOUND ( 'NONE', #12, .T. ) ;
#50 = DIRECTION ( 'NONE',  ( -3.491481338843133355E-15, 1.224646799147353207E-16, -1.000000000000000000 ) ) ;
#51 = APPLICATION_PROTOCOL_DEFINITION ( 'international standard', 'config_control_design', 1994, #71 ) ;
#52 = COORDINATED_UNIVERSAL_TIME_OFFSET ( 1, 0, .AHEAD. ) ;
#53 = CALENDAR_DATE ( 2021, 28, 10 ) ;
#54 = DATE_AND_TIME ( #195, #220 ) ;
#55 = APPROVAL_PERSON_ORGANIZATION ( #85, #162, #23 ) ;
#56 = ORIENTED_EDGE ( 'NONE', *, *, #135, .T. ) ;
#57 = CC_DESIGN_PERSON_AND_ORGANIZATION_ASSIGNMENT ( #67, #127, ( #187 ) ) ;
#58 = CONICAL_SURFACE ( 'NONE', #79, 1.199999999999999956, 0.7853981633974453924 ) ;
#59 = EDGE_LOOP ( 'NONE', ( #171 ) ) ;
#60 = EDGE_LOOP ( 'NONE', ( #56 ) ) ;
#61 = DIRECTION ( 'NONE',  ( -3.491481338843133355E-15, 1.224646799147353207E-16, -1.000000000000000000 ) ) ;
#62 = PRODUCT_DEFINITION_SHAPE ( 'NONE', 'NONE',  #106 ) ;
#63 = FACE_BOUND ( 'NONE', #59, .T. ) ;
#64 = DIRECTION ( 'NONE',  ( -3.491481338843133355E-15, 1.224646799147353207E-16, -1.000000000000000000 ) ) ;
#65 = FACE_OUTER_BOUND ( 'NONE', #73, .T. ) ;
#66 = PLANE ( 'NONE',  #100 ) ;
#67 = PERSON_AND_ORGANIZATION ( #104, #107 ) ;
#68 = CIRCLE ( 'NONE', #2, 1.499999999999998668 ) ;
#69 = APPROVAL_STATUS ( 'not_yet_approved' ) ;
#70 = VERTEX_POINT ( 'NONE', #125 ) ;
#71 = APPLICATION_CONTEXT ( 'configuration controlled 3d designs of mechanical parts and assemblies' ) ;
#72 = CONICAL_SURFACE ( 'NONE', #138, 1.499999999999998668, 0.2617993877991501295 ) ;
#73 = EDGE_LOOP ( 'NONE', ( #221 ) ) ;
#74 = EDGE_CURVE ( 'NONE', #158, #158, #68, .T. ) ;
#75 = DESIGN_CONTEXT ( 'detailed design', #84, 'design' ) ;
#76 = APPROVAL_PERSON_ORGANIZATION ( #7, #205, #128 ) ;
#77 = SHAPE_DEFINITION_REPRESENTATION ( #62, #146 ) ;
#78 = DIRECTION ( 'NONE',  ( -3.491481338843133355E-15, 1.224646799147353207E-16, -1.000000000000000000 ) ) ;
#79 = AXIS2_PLACEMENT_3D ( 'NONE', #99, #61, #105 ) ;
#80 = DIRECTION ( 'NONE',  ( 4.275831445896958607E-31, 1.000000000000000000, 1.224646799147353207E-16 ) ) ;
#81 = DIRECTION ( 'NONE',  ( 3.491481338843133355E-15, -1.229791517316362731E-16, 1.000000000000000000 ) ) ;
#82 = PRODUCT_RELATED_PRODUCT_CATEGORY ( 'detail', '', ( #222 ) ) ;
#83 = CARTESIAN_POINT ( 'NONE',  ( 4.683761634990196735E-14, -1.649743982235143634E-15, 13.41482648892550955 ) ) ;
#84 = APPLICATION_CONTEXT ( 'configuration controlled 3d designs of mechanical parts and assemblies' ) ;
#85 = PERSON_AND_ORGANIZATION ( #104, #107 ) ;
#86 = LOCAL_TIME ( 11, 22, 54.00000000000000000, #145 ) ;
#87 = PERSON_AND_ORGANIZATION ( #104, #107 ) ;
#88 = SECURITY_CLASSIFICATION_LEVEL ( 'unclassified' ) ;
#89 = APPROVAL_DATE_TIME ( #54, #162 ) ;
#90 = AXIS2_PLACEMENT_3D ( 'NONE', #134, #210, #136 ) ;
#91 = CARTESIAN_POINT ( 'NONE',  ( 4.683761634990196735E-14, 1.499999999999996891, 13.41482648892550955 ) ) ;
#92 = APPROVAL_STATUS ( 'not_yet_approved' ) ;
#93 = EDGE_LOOP ( 'NONE', ( #154 ) ) ;
#94 = APPROVAL_PERSON_ORGANIZATION ( #204, #122, #113 ) ;
#95 = ADVANCED_FACE ( 'NONE', ( #63, #16 ), #72, .T. ) ;
#96 = EDGE_LOOP ( 'NONE', ( #11 ) ) ;
#97 = EDGE_LOOP ( 'NONE', ( #168 ) ) ;
#98 = CARTESIAN_POINT ( 'NONE',  ( 3.491481338843133355E-14, -1.229791517316362583E-15, 10.00000000000000000 ) ) ;
#99 = CARTESIAN_POINT ( 'NONE',  ( 1.326762908760390423E-13, -4.653657836759941941E-15, 38.00000000000000000 ) ) ;
#100 = AXIS2_PLACEMENT_3D ( 'NONE', #137, #123, #212 ) ;
#101 = CC_DESIGN_DATE_AND_TIME_ASSIGNMENT ( #109, #21, ( #106 ) ) ;
#102 = FACE_OUTER_BOUND ( 'NONE', #60, .T. ) ;
#103 = DIRECTION ( 'NONE',  ( -4.275831445896958607E-31, -1.000000000000000000, -1.224646799147353207E-16 ) ) ;
#104 = PERSON ( 'UNSPECIFIED', 'UNSPECIFIED', 'UNSPECIFIED', ('UNSPECIFIED'), ('UNSPECIFIED'), ('UNSPECIFIED') ) ;
#105 = DIRECTION ( 'NONE',  ( 0.0000000000000000000, 1.000000000000000000, 0.0000000000000000000 ) ) ;
#106 = PRODUCT_DEFINITION ( 'UNKNOWN', '', #187, #75 ) ;
#107 = ORGANIZATION ( 'UNSPECIFIED', 'UNSPECIFIED', '' ) ;
#108 = PERSON_AND_ORGANIZATION_ROLE ( 'design_owner' ) ;
#109 = DATE_AND_TIME ( #18, #121 ) ;
#110 = CARTESIAN_POINT ( 'NONE',  ( 3.491481338843133355E-14, 0.5849999999999988542, 10.00000000000000000 ) ) ;
#111 = DATE_AND_TIME ( #124, #209 ) ;
#112 = PERSON_AND_ORGANIZATION_ROLE ( 'design_supplier' ) ;
#113 = APPROVAL_ROLE ( '' ) ;
#114 = CC_DESIGN_APPROVAL ( #205, ( #187 ) ) ;
#115 = EDGE_LOOP ( 'NONE', ( #26 ) ) ;
#116 = SECURITY_CLASSIFICATION ( '', '', #88 ) ;
#117 = DIRECTION ( 'NONE',  ( 0.0000000000000000000, -1.000000000000000000, 0.0000000000000000000 ) ) ;
#118 = CARTESIAN_POINT ( 'NONE',  ( 3.491481338843133355E-14, 1.124819836996388827E-32, 10.00000000000000000 ) ) ;
#119 = EDGE_CURVE ( 'NONE', #38, #38, #39, .T. ) ;
#120 = CARTESIAN_POINT ( 'NONE',  ( 4.683761634990196735E-14, -1.649743982235143634E-15, 13.41482648892550955 ) ) ;
#121 = LOCAL_TIME ( 11, 22, 54.00000000000000000, #24 ) ;
#122 = APPROVAL ( #92, 'UNSPECIFIED' ) ;
#123 = DIRECTION ( 'NONE',  ( 3.491481338843133355E-15, -1.224646799147353207E-16, 1.000000000000000000 ) ) ;
#124 = CALENDAR_DATE ( 2021, 28, 10 ) ;
#125 = CARTESIAN_POINT ( 'NONE',  ( 1.316288464743861212E-13, 1.499999999999995337, 37.69999999999999574 ) ) ;
#126 = ADVANCED_FACE ( 'NONE', ( #49, #102 ), #29, .T. ) ;
#127 = PERSON_AND_ORGANIZATION_ROLE ( 'creator' ) ;
#128 = APPROVAL_ROLE ( '' ) ;
#129 = CIRCLE ( 'NONE', #157, 0.5849999999999999645 ) ;
#130 = DATE_AND_TIME ( #184, #142 ) ;
#131 = FACE_OUTER_BOUND ( 'NONE', #97, .T. ) ;
#132 = EDGE_LOOP ( 'NONE', ( #167 ) ) ;
#133 = PLANE ( 'NONE',  #9 ) ;
#134 = CARTESIAN_POINT ( 'NONE',  ( 3.491481338843133355E-14, -1.229791517316362583E-15, 10.00000000000000000 ) ) ;
#135 = EDGE_CURVE ( 'NONE', #70, #70, #164, .T. ) ;
#136 = DIRECTION ( 'NONE',  ( 0.0000000000000000000, 1.000000000000000000, 0.0000000000000000000 ) ) ;
#137 = CARTESIAN_POINT ( 'NONE',  ( 3.491481338843133355E-14, 1.124819836996388827E-32, 10.00000000000000000 ) ) ;
#138 = AXIS2_PLACEMENT_3D ( 'NONE', #120, #81, #117 ) ;
#139 = FACE_OUTER_BOUND ( 'NONE', #185, .T. ) ;
#140 =( NAMED_UNIT ( * ) PLANE_ANGLE_UNIT ( ) SI_UNIT ( $, .RADIAN. ) );
#141 = CARTESIAN_POINT ( 'NONE',  ( 0.0000000000000000000, 0.0000000000000000000, 0.0000000000000000000 ) ) ;
#142 = LOCAL_TIME ( 11, 22, 54.00000000000000000, #151 ) ;
#143 = APPLICATION_PROTOCOL_DEFINITION ( 'international standard', 'config_control_design', 1994, #84 ) ;
#144 = ADVANCED_FACE ( 'NONE', ( #65 ), #66, .F. ) ;
#145 = COORDINATED_UNIVERSAL_TIME_OFFSET ( 1, 0, .AHEAD. ) ;
#146 = ADVANCED_BREP_SHAPE_REPRESENTATION ( '962907', ( #211, #207, #191 ), #149 ) ;
#147 = ADVANCED_FACE ( 'NONE', ( #188 ), #25, .T. ) ;
#148 = CIRCLE ( 'NONE', #196, 1.199999999999999956 ) ;
#149 =( GEOMETRIC_REPRESENTATION_CONTEXT ( 3 ) GLOBAL_UNCERTAINTY_ASSIGNED_CONTEXT ( ( #169 ) ) GLOBAL_UNIT_ASSIGNED_CONTEXT ( ( #179, #140, #6 ) ) REPRESENTATION_CONTEXT ( 'NONE', 'WORKASPACE' ) );
#150 = FACE_OUTER_BOUND ( 'NONE', #96, .T. ) ;
#151 = COORDINATED_UNIVERSAL_TIME_OFFSET ( 1, 0, .AHEAD. ) ;
#152 = ORIENTED_EDGE ( 'NONE', *, *, #74, .F. ) ;
#153 = CIRCLE ( 'NONE', #19, 0.5849999999999999645 ) ;
#154 = ORIENTED_EDGE ( 'NONE', *, *, #47, .F. ) ;
#155 = FACE_OUTER_BOUND ( 'NONE', #115, .T. ) ;
#156 = VERTEX_POINT ( 'NONE', #1 ) ;
#157 = AXIS2_PLACEMENT_3D ( 'NONE', #98, #173, #14 ) ;
#158 = VERTEX_POINT ( 'NONE', #91 ) ;
#159 = DIRECTION ( 'NONE',  ( 0.0000000000000000000, 1.000000000000000000, 0.0000000000000000000 ) ) ;
#160 = DIRECTION ( 'NONE',  ( -5.135813185032644414E-31, -1.000000000000000000, -1.445602896647343601E-16 ) ) ;
#161 = CARTESIAN_POINT ( 'NONE',  ( 3.491481338843133355E-14, 0.5849999999999988542, 10.00000000000000000 ) ) ;
#162 = APPROVAL ( #198, 'UNSPECIFIED' ) ;
#163 = DIRECTION ( 'NONE',  ( 1.000000000000000000, 0.0000000000000000000, 0.0000000000000000000 ) ) ;
#164 = CIRCLE ( 'NONE', #203, 1.499999999999999778 ) ;
#165 = PERSON_AND_ORGANIZATION ( #104, #107 ) ;
#166 = AXIS2_PLACEMENT_3D ( 'NONE', #172, #50, #194 ) ;
#167 = ORIENTED_EDGE ( 'NONE', *, *, #47, .T. ) ;
#168 = ORIENTED_EDGE ( 'NONE', *, *, #10, .F. ) ;
#169 = UNCERTAINTY_MEASURE_WITH_UNIT (LENGTH_MEASURE( 1.000000000000000082E-05 ), #179, 'distance_accuracy_value', 'NONE');
#170 = CC_DESIGN_DATE_AND_TIME_ASSIGNMENT ( #111, #43, ( #116 ) ) ;
#171 = ORIENTED_EDGE ( 'NONE', *, *, #119, .F. ) ;
#172 = CARTESIAN_POINT ( 'NONE',  ( 0.0000000000000000000, 0.0000000000000000000, 0.0000000000000000000 ) ) ;
#173 = DIRECTION ( 'NONE',  ( -3.491481338843133355E-15, 1.229791517316362731E-16, -1.000000000000000000 ) ) ;
#174 = CC_DESIGN_SECURITY_CLASSIFICATION ( #116, ( #187 ) ) ;
#175 = DIRECTION ( 'NONE',  ( -4.938281908685220765E-31, -1.000000000000000000, -1.390002785237826374E-16 ) ) ;
#176 = DIRECTION ( 'NONE',  ( 0.0000000000000000000, 1.000000000000000000, 0.0000000000000000000 ) ) ;
#177 = FACE_OUTER_BOUND ( 'NONE', #93, .T. ) ;
#178 = PERSON_AND_ORGANIZATION ( #104, #107 ) ;
#179 =( LENGTH_UNIT ( ) NAMED_UNIT ( * ) SI_UNIT ( .MILLI., .METRE. ) );
#180 = AXIS2_PLACEMENT_3D ( 'NONE', #118, #223, #103 ) ;
#181 = CLOSED_SHELL ( 'NONE', ( #186, #8, #147 ) ) ;
#182 = CC_DESIGN_PERSON_AND_ORGANIZATION_ASSIGNMENT ( #87, #36, ( #106 ) ) ;
#183 = CYLINDRICAL_SURFACE ( 'NONE', #35, 0.5849999999999999645 ) ;
#184 = CALENDAR_DATE ( 2021, 28, 10 ) ;
#185 = EDGE_LOOP ( 'NONE', ( #44 ) ) ;
#186 = ADVANCED_FACE ( 'NONE', ( #155 ), #5, .T. ) ;
#187 = PRODUCT_DEFINITION_FORMATION_WITH_SPECIFIED_SOURCE ( 'ANY', '', #222, .NOT_KNOWN. ) ;
#188 = FACE_OUTER_BOUND ( 'NONE', #206, .T. ) ;
#189 = CARTESIAN_POINT ( 'NONE',  ( 1.326762908760390423E-13, 1.199999999999995293, 38.00000000000000000 ) ) ;
#190 = DIRECTION ( 'NONE',  ( -3.491481338843133355E-15, 1.224646799147353207E-16, -1.000000000000000000 ) ) ;
#191 = AXIS2_PLACEMENT_3D ( 'NONE', #141, #20, #163 ) ;
#192 = ADVANCED_FACE ( 'NONE', ( #139, #33 ), #58, .T. ) ;
#193 = DIRECTION ( 'NONE',  ( 3.491481338843133355E-15, -1.224646799147353207E-16, 1.000000000000000000 ) ) ;
#194 = DIRECTION ( 'NONE',  ( 4.275831445896958607E-31, 1.000000000000000000, 1.224646799147353207E-16 ) ) ;
#195 = CALENDAR_DATE ( 2021, 28, 10 ) ;
#196 = AXIS2_PLACEMENT_3D ( 'NONE', #4, #3, #208 ) ;
#197 = MECHANICAL_CONTEXT ( 'NONE', #71, 'mechanical' ) ;
#198 = APPROVAL_STATUS ( 'not_yet_approved' ) ;
#199 = PERSON_AND_ORGANIZATION ( #104, #107 ) ;
#200 = APPROVAL_DATE_TIME ( #34, #205 ) ;
#201 = ORIENTED_EDGE ( 'NONE', *, *, #74, .T. ) ;
#202 = EDGE_CURVE ( 'NONE', #216, #216, #129, .T. ) ;
#203 = AXIS2_PLACEMENT_3D ( 'NONE', #28, #190, #159 ) ;
#204 = PERSON_AND_ORGANIZATION ( #104, #107 ) ;
#205 = APPROVAL ( #69, 'UNSPECIFIED' ) ;
#206 = EDGE_LOOP ( 'NONE', ( #219 ) ) ;
#207 = MANIFOLD_SOLID_BREP ( 'Corps-Déplacer/Copier1[2]', #181 ) ;
#208 = DIRECTION ( 'NONE',  ( 0.0000000000000000000, 1.000000000000000000, 0.0000000000000000000 ) ) ;
#209 = LOCAL_TIME ( 11, 22, 54.00000000000000000, #52 ) ;
#210 = DIRECTION ( 'NONE',  ( -3.491481338843133355E-15, 1.229791517316362731E-16, -1.000000000000000000 ) ) ;
#211 = MANIFOLD_SOLID_BREP ( 'Corps-Déplacer/Copier1[1]', #31 ) ;
#212 = DIRECTION ( 'NONE',  ( -4.275831445896958607E-31, -1.000000000000000000, -1.224646799147353207E-16 ) ) ;
#213 = CC_DESIGN_PERSON_AND_ORGANIZATION_ASSIGNMENT ( #165, #215, ( #116 ) ) ;
#214 = CARTESIAN_POINT ( 'NONE',  ( 7.434152392883727463E-16, -2.607549646917282172E-17, 0.2129225870457310821 ) ) ;
#215 = PERSON_AND_ORGANIZATION_ROLE ( 'classification_officer' ) ;
#216 = VERTEX_POINT ( 'NONE', #110 ) ;
#217 = AXIS2_PLACEMENT_3D ( 'NONE', #15, #193, #160 ) ;
#218 = ADVANCED_FACE ( 'NONE', ( #177 ), #133, .F. ) ;
#219 = ORIENTED_EDGE ( 'NONE', *, *, #10, .T. ) ;
#220 = LOCAL_TIME ( 11, 22, 54.00000000000000000, #40 ) ;
#221 = ORIENTED_EDGE ( 'NONE', *, *, #119, .T. ) ;
#222 = PRODUCT ( '962907', '962907', '', ( #197 ) ) ;
#223 = DIRECTION ( 'NONE',  ( 3.491481338843133355E-15, -1.224646799147353207E-16, 1.000000000000000000 ) ) ;
ENDSEC;
END-ISO-10303-21;
