ISO-10303-21;
HEADER;
FILE_DESCRIPTION (( 'STEP AP203' ),
    '1' );
FILE_NAME ('962906.step',
    '2021-10-28T09:22:53',
    ( '' ),
    ( '' ),
    'SwSTEP 2.0',
    'SolidWorks 2019',
    '' );
FILE_SCHEMA (( 'CONFIG_CONTROL_DESIGN' ));
ENDSEC;

DATA;
#1 = CONICAL_SURFACE ( 'NONE', #132, 1.499999999999998668, 0.2617993877991501850 ) ;
#2 = APPROVAL_DATE_TIME ( #77, #120 ) ;
#3 = VERTEX_POINT ( 'NONE', #144 ) ;
#4 = SHAPE_DEFINITION_REPRESENTATION ( #154, #189 ) ;
#5 = APPROVAL_ROLE ( '' ) ;
#6 = ORIENTED_EDGE ( 'NONE', *, *, #141, .T. ) ;
#7 = APPROVAL_STATUS ( 'not_yet_approved' ) ;
#8 = CALENDAR_DATE ( 2021, 28, 10 ) ;
#9 = CIRCLE ( 'NONE', #170, 0.5799999999999999600 ) ;
#10 = PERSON_AND_ORGANIZATION ( #45, #18 ) ;
#11 = DIRECTION ( 'NONE',  ( 3.491481338843133355E-15, -1.224646799147353207E-16, 1.000000000000000000 ) ) ;
#12 = CYLINDRICAL_SURFACE ( 'NONE', #110, 0.5799999999999999600 ) ;
#13 = DIRECTION ( 'NONE',  ( -4.275831445896958607E-31, -1.000000000000000000, -1.224646799147353207E-16 ) ) ;
#14 = DIRECTION ( 'NONE',  ( -3.491481338843133355E-15, 1.224646799147353207E-16, -1.000000000000000000 ) ) ;
#15 = PLANE ( 'NONE',  #187 ) ;
#16 = DIRECTION ( 'NONE',  ( -3.491481338843133355E-15, 1.224646799147353207E-16, -1.000000000000000000 ) ) ;
#17 = VERTEX_POINT ( 'NONE', #57 ) ;
#18 = ORGANIZATION ( 'UNSPECIFIED', 'UNSPECIFIED', '' ) ;
#19 = ADVANCED_FACE ( 'NONE', ( #26 ), #143, .T. ) ;
#20 = CARTESIAN_POINT ( 'NONE',  ( 3.491481338843133355E-14, 0.5799999999999988498, 10.00000000000000000 ) ) ;
#21 = PERSON_AND_ORGANIZATION_ROLE ( 'design_owner' ) ;
#22 = EDGE_LOOP ( 'NONE', ( #164 ) ) ;
#23 = APPROVAL_STATUS ( 'not_yet_approved' ) ;
#24 = ORIENTED_EDGE ( 'NONE', *, *, #197, .T. ) ;
#25 = APPROVAL_STATUS ( 'not_yet_approved' ) ;
#26 = FACE_OUTER_BOUND ( 'NONE', #61, .T. ) ;
#27 = APPLICATION_CONTEXT ( 'configuration controlled 3d designs of mechanical parts and assemblies' ) ;
#28 = DIRECTION ( 'NONE',  ( -3.491481338843133355E-15, 1.229791517316362731E-16, -1.000000000000000000 ) ) ;
#29 = CARTESIAN_POINT ( 'NONE',  ( 0.0000000000000000000, 0.0000000000000000000, 0.0000000000000000000 ) ) ;
#30 = CARTESIAN_POINT ( 'NONE',  ( 0.0000000000000000000, 0.0000000000000000000, 0.0000000000000000000 ) ) ;
#31 = CONICAL_SURFACE ( 'NONE', #102, 1.199999999999999956, 0.7853981633974453924 ) ;
#32 = DIRECTION ( 'NONE',  ( 0.0000000000000000000, 1.000000000000000000, 0.0000000000000000000 ) ) ;
#33 = CIRCLE ( 'NONE', #65, 1.499999999999998668 ) ;
#34 = PLANE ( 'NONE',  #64 ) ;
#35 = DIRECTION ( 'NONE',  ( -3.491481338843133355E-15, 1.224646799147353207E-16, -1.000000000000000000 ) ) ;
#36 = EDGE_CURVE ( 'NONE', #218, #218, #58, .T. ) ;
#37 = CC_DESIGN_APPROVAL ( #120, ( #92 ) ) ;
#38 = AXIS2_PLACEMENT_3D ( 'NONE', #72, #169, #87 ) ;
#39 = PERSON_AND_ORGANIZATION ( #45, #18 ) ;
#40 = ORIENTED_EDGE ( 'NONE', *, *, #155, .F. ) ;
#41 = MECHANICAL_CONTEXT ( 'NONE', #27, 'mechanical' ) ;
#42 = APPROVAL ( #23, 'UNSPECIFIED' ) ;
#43 = PERSON_AND_ORGANIZATION ( #45, #18 ) ;
#44 = EDGE_LOOP ( 'NONE', ( #162 ) ) ;
#45 = PERSON ( 'UNSPECIFIED', 'UNSPECIFIED', 'UNSPECIFIED', ('UNSPECIFIED'), ('UNSPECIFIED'), ('UNSPECIFIED') ) ;
#46 = MANIFOLD_SOLID_BREP ( 'Corps-Déplacer/Copier1[2]', #98 ) ;
#47 = AXIS2_PLACEMENT_3D ( 'NONE', #206, #217, #122 ) ;
#48 = ORIENTED_EDGE ( 'NONE', *, *, #103, .F. ) ;
#49 = PRODUCT_RELATED_PRODUCT_CATEGORY ( 'detail', '', ( #97 ) ) ;
#50 = FACE_OUTER_BOUND ( 'NONE', #44, .T. ) ;
#51 = CARTESIAN_POINT ( 'NONE',  ( 4.690276827865316300E-14, -1.652038804447814463E-15, 13.43348674296335155 ) ) ;
#52 = LOCAL_TIME ( 11, 22, 53.00000000000000000, #149 ) ;
#53 = DIRECTION ( 'NONE',  ( 3.491481338843133355E-15, -1.229791517316362731E-16, 1.000000000000000000 ) ) ;
#54 = CIRCLE ( 'NONE', #176, 0.5799999999999999600 ) ;
#55 = DIRECTION ( 'NONE',  ( 0.0000000000000000000, -1.000000000000000000, 0.0000000000000000000 ) ) ;
#56 = VERTEX_POINT ( 'NONE', #174 ) ;
#57 = CARTESIAN_POINT ( 'NONE',  ( 4.690276827865316300E-14, 1.499999999999996891, 13.43348674296335155 ) ) ;
#58 = CIRCLE ( 'NONE', #38, 1.499999999999999778 ) ;
#59 = APPROVAL_DATE_TIME ( #130, #42 ) ;
#60 = APPLICATION_PROTOCOL_DEFINITION ( 'international standard', 'config_control_design', 1994, #27 ) ;
#61 = EDGE_LOOP ( 'NONE', ( #131 ) ) ;
#62 = CC_DESIGN_PERSON_AND_ORGANIZATION_ASSIGNMENT ( #82, #21, ( #97 ) ) ;
#63 = DATE_TIME_ROLE ( 'creation_date' ) ;
#64 = AXIS2_PLACEMENT_3D ( 'NONE', #108, #75, #150 ) ;
#65 = AXIS2_PLACEMENT_3D ( 'NONE', #51, #104, #32 ) ;
#66 = COORDINATED_UNIVERSAL_TIME_OFFSET ( 1, 0, .AHEAD. ) ;
#67 = EDGE_LOOP ( 'NONE', ( #215 ) ) ;
#68 = DATE_AND_TIME ( #99, #52 ) ;
#69 = EDGE_CURVE ( 'NONE', #3, #3, #173, .T. ) ;
#70 = FACE_BOUND ( 'NONE', #183, .T. ) ;
#71 = DIRECTION ( 'NONE',  ( 0.0000000000000000000, 1.000000000000000000, 0.0000000000000000000 ) ) ;
#72 = CARTESIAN_POINT ( 'NONE',  ( 1.316288464743861212E-13, -4.616918432785521081E-15, 37.69999999999999574 ) ) ;
#73 = ADVANCED_FACE ( 'NONE', ( #70, #186 ), #1, .T. ) ;
#74 = LOCAL_TIME ( 11, 22, 53.00000000000000000, #66 ) ;
#75 = DIRECTION ( 'NONE',  ( 3.491481338843133355E-15, -1.224646799147353207E-16, 1.000000000000000000 ) ) ;
#76 = CARTESIAN_POINT ( 'NONE',  ( 1.326762908760390423E-13, -4.653657836759941941E-15, 38.00000000000000000 ) ) ;
#77 = DATE_AND_TIME ( #177, #137 ) ;
#78 = CC_DESIGN_DATE_AND_TIME_ASSIGNMENT ( #83, #63, ( #213 ) ) ;
#79 = APPROVAL_PERSON_ORGANIZATION ( #43, #202, #101 ) ;
#80 = DIRECTION ( 'NONE',  ( 0.0000000000000000000, 0.0000000000000000000, 1.000000000000000000 ) ) ;
#81 = ORIENTED_EDGE ( 'NONE', *, *, #36, .F. ) ;
#82 = PERSON_AND_ORGANIZATION ( #45, #18 ) ;
#83 = DATE_AND_TIME ( #118, #199 ) ;
#84 = ORIENTED_EDGE ( 'NONE', *, *, #141, .F. ) ;
#85 = ADVANCED_FACE ( 'NONE', ( #127, #90 ), #201, .T. ) ;
#86 = SECURITY_CLASSIFICATION_LEVEL ( 'unclassified' ) ;
#87 = DIRECTION ( 'NONE',  ( 0.0000000000000000000, 1.000000000000000000, 0.0000000000000000000 ) ) ;
#88 = DIRECTION ( 'NONE',  ( -3.491481338843133355E-15, 1.229791517316362731E-16, -1.000000000000000000 ) ) ;
#89 = CALENDAR_DATE ( 2021, 28, 10 ) ;
#90 = FACE_OUTER_BOUND ( 'NONE', #181, .T. ) ;
#91 = DIRECTION ( 'NONE',  ( 0.0000000000000000000, 1.000000000000000000, 0.0000000000000000000 ) ) ;
#92 = SECURITY_CLASSIFICATION ( '', '', #86 ) ;
#93 = CARTESIAN_POINT ( 'NONE',  ( 1.326762908760390423E-13, 1.199999999999995293, 38.00000000000000000 ) ) ;
#94 = DESIGN_CONTEXT ( 'detailed design', #112, 'design' ) ;
#95 = PERSON_AND_ORGANIZATION ( #45, #18 ) ;
#96 = EDGE_LOOP ( 'NONE', ( #81 ) ) ;
#97 = PRODUCT ( '962906', '962906', '', ( #41 ) ) ;
#98 = CLOSED_SHELL ( 'NONE', ( #208, #223, #19 ) ) ;
#99 = CALENDAR_DATE ( 2021, 28, 10 ) ;
#100 = ORIENTED_EDGE ( 'NONE', *, *, #36, .T. ) ;
#101 = APPROVAL_ROLE ( '' ) ;
#102 = AXIS2_PLACEMENT_3D ( 'NONE', #76, #105, #220 ) ;
#103 = EDGE_CURVE ( 'NONE', #17, #17, #33, .T. ) ;
#104 = DIRECTION ( 'NONE',  ( -3.491481338843133355E-15, 1.229791517316362731E-16, -1.000000000000000000 ) ) ;
#105 = DIRECTION ( 'NONE',  ( -3.491481338843133355E-15, 1.224646799147353207E-16, -1.000000000000000000 ) ) ;
#106 = AXIS2_PLACEMENT_3D ( 'NONE', #166, #11, #109 ) ;
#107 = FACE_OUTER_BOUND ( 'NONE', #67, .T. ) ;
#108 = CARTESIAN_POINT ( 'NONE',  ( 3.491481338843133355E-14, 1.124819836996388827E-32, 10.00000000000000000 ) ) ;
#109 = DIRECTION ( 'NONE',  ( -5.135813185032644414E-31, -1.000000000000000000, -1.445602896647343601E-16 ) ) ;
#110 = AXIS2_PLACEMENT_3D ( 'NONE', #29, #88, #152 ) ;
#111 = VERTEX_POINT ( 'NONE', #20 ) ;
#112 = APPLICATION_CONTEXT ( 'configuration controlled 3d designs of mechanical parts and assemblies' ) ;
#113 = AXIS2_PLACEMENT_3D ( 'NONE', #30, #80, #145 ) ;
#114 = ADVANCED_FACE ( 'NONE', ( #188 ), #15, .F. ) ;
#115 = PERSON_AND_ORGANIZATION_ROLE ( 'classification_officer' ) ;
#116 = EDGE_LOOP ( 'NONE', ( #24 ) ) ;
#117 = PERSON_AND_ORGANIZATION_ROLE ( 'creator' ) ;
#118 = CALENDAR_DATE ( 2021, 28, 10 ) ;
#119 = EDGE_LOOP ( 'NONE', ( #198 ) ) ;
#120 = APPROVAL ( #7, 'UNSPECIFIED' ) ;
#121 = CARTESIAN_POINT ( 'NONE',  ( 1.326762908760390423E-13, 8.998558695971077224E-33, 38.00000000000000000 ) ) ;
#122 = DIRECTION ( 'NONE',  ( -4.980853304449747986E-31, -1.000000000000000000, -1.401985567869186794E-16 ) ) ;
#123 = COORDINATED_UNIVERSAL_TIME_OFFSET ( 1, 0, .AHEAD. ) ;
#124 = PRODUCT_DEFINITION_FORMATION_WITH_SPECIFIED_SOURCE ( 'ANY', '', #97, .NOT_KNOWN. ) ;
#125 = CIRCLE ( 'NONE', #148, 1.199999999999999956 ) ;
#126 = ADVANCED_FACE ( 'NONE', ( #107 ), #200, .F. ) ;
#127 = FACE_OUTER_BOUND ( 'NONE', #179, .T. ) ;
#128 = CARTESIAN_POINT ( 'NONE',  ( 0.0000000000000000000, 0.0000000000000000000, 0.0000000000000000000 ) ) ;
#129 =( NAMED_UNIT ( * ) PLANE_ANGLE_UNIT ( ) SI_UNIT ( $, .RADIAN. ) );
#130 = DATE_AND_TIME ( #8, #74 ) ;
#131 = ORIENTED_EDGE ( 'NONE', *, *, #69, .T. ) ;
#132 = AXIS2_PLACEMENT_3D ( 'NONE', #134, #53, #55 ) ;
#133 = PERSON_AND_ORGANIZATION ( #45, #18 ) ;
#134 = CARTESIAN_POINT ( 'NONE',  ( 4.690276827865316300E-14, -1.652038804447814463E-15, 13.43348674296335155 ) ) ;
#135 = CARTESIAN_POINT ( 'NONE',  ( 1.316288464743861212E-13, 1.499999999999995337, 37.69999999999999574 ) ) ;
#136 = DIRECTION ( 'NONE',  ( 4.275831445896958607E-31, 1.000000000000000000, 1.224646799147353207E-16 ) ) ;
#137 = LOCAL_TIME ( 11, 22, 53.00000000000000000, #210 ) ;
#138 = FACE_OUTER_BOUND ( 'NONE', #119, .T. ) ;
#139 = CC_DESIGN_PERSON_AND_ORGANIZATION_ASSIGNMENT ( #10, #147, ( #124 ) ) ;
#140 = CARTESIAN_POINT ( 'NONE',  ( 3.491481338843133355E-14, -1.229791517316362583E-15, 10.00000000000000000 ) ) ;
#141 = EDGE_CURVE ( 'NONE', #142, #142, #125, .T. ) ;
#142 = VERTEX_POINT ( 'NONE', #93 ) ;
#143 = CONICAL_SURFACE ( 'NONE', #106, 1.499999999999995559, 1.221730476396026388 ) ;
#144 = CARTESIAN_POINT ( 'NONE',  ( 7.370612628841983936E-16, -0.5799999999999999600, 0.2111027358743999827 ) ) ;
#145 = DIRECTION ( 'NONE',  ( 1.000000000000000000, 0.0000000000000000000, 0.0000000000000000000 ) ) ;
#146 = APPLICATION_PROTOCOL_DEFINITION ( 'international standard', 'config_control_design', 1994, #112 ) ;
#147 = PERSON_AND_ORGANIZATION_ROLE ( 'design_supplier' ) ;
#148 = AXIS2_PLACEMENT_3D ( 'NONE', #171, #14, #91 ) ;
#149 = COORDINATED_UNIVERSAL_TIME_OFFSET ( 1, 0, .AHEAD. ) ;
#150 = DIRECTION ( 'NONE',  ( -4.275831445896958607E-31, -1.000000000000000000, -1.224646799147353207E-16 ) ) ;
#151 =( GEOMETRIC_REPRESENTATION_CONTEXT ( 3 ) GLOBAL_UNCERTAINTY_ASSIGNED_CONTEXT ( ( #222 ) ) GLOBAL_UNIT_ASSIGNED_CONTEXT ( ( #163, #129, #180 ) ) REPRESENTATION_CONTEXT ( 'NONE', 'WORKASPACE' ) );
#152 = DIRECTION ( 'NONE',  ( 4.293794133377662246E-31, 1.000000000000000000, 1.229791517316362731E-16 ) ) ;
#153 = FACE_BOUND ( 'NONE', #193, .T. ) ;
#154 = PRODUCT_DEFINITION_SHAPE ( 'NONE', 'NONE',  #213 ) ;
#155 = EDGE_CURVE ( 'NONE', #111, #111, #54, .T. ) ;
#156 = CARTESIAN_POINT ( 'NONE',  ( 3.491481338843133355E-14, 1.124819836996388827E-32, 10.00000000000000000 ) ) ;
#157 = CC_DESIGN_DATE_AND_TIME_ASSIGNMENT ( #68, #161, ( #92 ) ) ;
#158 = AXIS2_PLACEMENT_3D ( 'NONE', #128, #35, #172 ) ;
#159 = CC_DESIGN_PERSON_AND_ORGANIZATION_ASSIGNMENT ( #192, #196, ( #124 ) ) ;
#160 = EDGE_LOOP ( 'NONE', ( #84 ) ) ;
#161 = DATE_TIME_ROLE ( 'classification_date' ) ;
#162 = ORIENTED_EDGE ( 'NONE', *, *, #197, .F. ) ;
#163 =( LENGTH_UNIT ( ) NAMED_UNIT ( * ) SI_UNIT ( .MILLI., .METRE. ) );
#164 = ORIENTED_EDGE ( 'NONE', *, *, #103, .T. ) ;
#165 = COORDINATED_UNIVERSAL_TIME_OFFSET ( 1, 0, .AHEAD. ) ;
#166 = CARTESIAN_POINT ( 'NONE',  ( 1.906192921252232855E-15, -6.686024735685322183E-17, 0.5459553513993090634 ) ) ;
#167 = CC_DESIGN_SECURITY_CLASSIFICATION ( #92, ( #124 ) ) ;
#168 = DIRECTION ( 'NONE',  ( 0.0000000000000000000, 1.000000000000000000, 0.0000000000000000000 ) ) ;
#169 = DIRECTION ( 'NONE',  ( -3.491481338843133355E-15, 1.224646799147353207E-16, -1.000000000000000000 ) ) ;
#170 = AXIS2_PLACEMENT_3D ( 'NONE', #140, #28, #168 ) ;
#171 = CARTESIAN_POINT ( 'NONE',  ( 1.326762908760390423E-13, -4.653657836759941941E-15, 38.00000000000000000 ) ) ;
#172 = DIRECTION ( 'NONE',  ( 4.275831445896958607E-31, 1.000000000000000000, 1.224646799147353207E-16 ) ) ;
#173 = CIRCLE ( 'NONE', #47, 0.5799999999999999600 ) ;
#174 = CARTESIAN_POINT ( 'NONE',  ( 3.491481338843133355E-14, 0.5799999999999988498, 10.00000000000000000 ) ) ;
#175 = APPROVAL_ROLE ( '' ) ;
#176 = AXIS2_PLACEMENT_3D ( 'NONE', #219, #221, #71 ) ;
#177 = CALENDAR_DATE ( 2021, 28, 10 ) ;
#178 = CC_DESIGN_PERSON_AND_ORGANIZATION_ASSIGNMENT ( #212, #117, ( #213 ) ) ;
#179 = EDGE_LOOP ( 'NONE', ( #48 ) ) ;
#180 =( NAMED_UNIT ( * ) SI_UNIT ( $, .STERADIAN. ) SOLID_ANGLE_UNIT ( ) );
#181 = EDGE_LOOP ( 'NONE', ( #100 ) ) ;
#182 = DATE_AND_TIME ( #89, #207 ) ;
#183 = EDGE_LOOP ( 'NONE', ( #40 ) ) ;
#184 = ADVANCED_FACE ( 'NONE', ( #203, #153 ), #31, .T. ) ;
#185 = DIRECTION ( 'NONE',  ( 3.491481338843133355E-15, -1.224646799147353207E-16, 1.000000000000000000 ) ) ;
#186 = FACE_OUTER_BOUND ( 'NONE', #22, .T. ) ;
#187 = AXIS2_PLACEMENT_3D ( 'NONE', #121, #16, #136 ) ;
#188 = FACE_OUTER_BOUND ( 'NONE', #160, .T. ) ;
#189 = ADVANCED_BREP_SHAPE_REPRESENTATION ( '962906', ( #190, #46, #113 ), #151 ) ;
#190 = MANIFOLD_SOLID_BREP ( 'Corps-Déplacer/Copier1[1]', #195 ) ;
#191 = CC_DESIGN_APPROVAL ( #42, ( #124 ) ) ;
#192 = PERSON_AND_ORGANIZATION ( #45, #18 ) ;
#193 = EDGE_LOOP ( 'NONE', ( #6 ) ) ;
#194 = CC_DESIGN_APPROVAL ( #202, ( #213 ) ) ;
#195 = CLOSED_SHELL ( 'NONE', ( #85, #184, #114, #73, #126 ) ) ;
#196 = PERSON_AND_ORGANIZATION_ROLE ( 'creator' ) ;
#197 = EDGE_CURVE ( 'NONE', #56, #56, #9, .T. ) ;
#198 = ORIENTED_EDGE ( 'NONE', *, *, #69, .F. ) ;
#199 = LOCAL_TIME ( 11, 22, 53.00000000000000000, #165 ) ;
#200 = PLANE ( 'NONE',  #214 ) ;
#201 = CYLINDRICAL_SURFACE ( 'NONE', #158, 1.499999999999998224 ) ;
#202 = APPROVAL ( #25, 'UNSPECIFIED' ) ;
#203 = FACE_OUTER_BOUND ( 'NONE', #96, .T. ) ;
#204 = APPROVAL_PERSON_ORGANIZATION ( #133, #120, #175 ) ;
#205 = FACE_OUTER_BOUND ( 'NONE', #116, .T. ) ;
#206 = CARTESIAN_POINT ( 'NONE',  ( 7.370612628841986894E-16, -2.585262897798330847E-17, 0.2111027358744000659 ) ) ;
#207 = LOCAL_TIME ( 11, 22, 53.00000000000000000, #123 ) ;
#208 = ADVANCED_FACE ( 'NONE', ( #50 ), #34, .T. ) ;
#209 = CC_DESIGN_PERSON_AND_ORGANIZATION_ASSIGNMENT ( #39, #115, ( #92 ) ) ;
#210 = COORDINATED_UNIVERSAL_TIME_OFFSET ( 1, 0, .AHEAD. ) ;
#211 = APPROVAL_PERSON_ORGANIZATION ( #95, #42, #5 ) ;
#212 = PERSON_AND_ORGANIZATION ( #45, #18 ) ;
#213 = PRODUCT_DEFINITION ( 'UNKNOWN', '', #124, #94 ) ;
#214 = AXIS2_PLACEMENT_3D ( 'NONE', #156, #185, #13 ) ;
#215 = ORIENTED_EDGE ( 'NONE', *, *, #155, .T. ) ;
#216 = APPROVAL_DATE_TIME ( #182, #202 ) ;
#217 = DIRECTION ( 'NONE',  ( -3.491481338843133355E-15, 1.224646799147353207E-16, -1.000000000000000000 ) ) ;
#218 = VERTEX_POINT ( 'NONE', #135 ) ;
#219 = CARTESIAN_POINT ( 'NONE',  ( 3.491481338843133355E-14, -1.229791517316362583E-15, 10.00000000000000000 ) ) ;
#220 = DIRECTION ( 'NONE',  ( 0.0000000000000000000, 1.000000000000000000, 0.0000000000000000000 ) ) ;
#221 = DIRECTION ( 'NONE',  ( -3.491481338843133355E-15, 1.229791517316362731E-16, -1.000000000000000000 ) ) ;
#222 = UNCERTAINTY_MEASURE_WITH_UNIT (LENGTH_MEASURE( 1.000000000000000082E-05 ), #163, 'distance_accuracy_value', 'NONE');
#223 = ADVANCED_FACE ( 'NONE', ( #205, #138 ), #12, .T. ) ;
ENDSEC;
END-ISO-10303-21;
