ISO-10303-21;
HEADER;
FILE_DESCRIPTION (( 'STEP AP203' ),
    '1' );
FILE_NAME ('962904.step',
    '2021-10-28T09:22:52',
    ( '' ),
    ( '' ),
    'SwSTEP 2.0',
    'SolidWorks 2019',
    '' );
FILE_SCHEMA (( 'CONFIG_CONTROL_DESIGN' ));
ENDSEC;

DATA;
#1 = CARTESIAN_POINT ( 'NONE',  ( 1.326762908760390423E-13, 8.998558695971077224E-33, 38.00000000000000000 ) ) ;
#2 = FACE_OUTER_BOUND ( 'NONE', #130, .T. ) ;
#3 = DIRECTION ( 'NONE',  ( 0.0000000000000000000, 1.000000000000000000, 0.0000000000000000000 ) ) ;
#4 = ORIENTED_EDGE ( 'NONE', *, *, #20, .T. ) ;
#5 = FACE_OUTER_BOUND ( 'NONE', #170, .T. ) ;
#6 = DATE_AND_TIME ( #161, #217 ) ;
#7 = CONICAL_SURFACE ( 'NONE', #72, 1.499999999999995559, 1.221730476396026388 ) ;
#8 = AXIS2_PLACEMENT_3D ( 'NONE', #177, #62, #122 ) ;
#9 = DIRECTION ( 'NONE',  ( 4.275831445896958607E-31, 1.000000000000000000, 1.224646799147353207E-16 ) ) ;
#10 = DIRECTION ( 'NONE',  ( 0.0000000000000000000, 0.0000000000000000000, 1.000000000000000000 ) ) ;
#11 = VERTEX_POINT ( 'NONE', #57 ) ;
#12 = CIRCLE ( 'NONE', #121, 1.199999999999999956 ) ;
#13 = COORDINATED_UNIVERSAL_TIME_OFFSET ( 1, 0, .AHEAD. ) ;
#14 = APPROVAL_PERSON_ORGANIZATION ( #81, #70, #50 ) ;
#15 = ADVANCED_FACE ( 'NONE', ( #138, #56 ), #112, .T. ) ;
#16 = DATE_TIME_ROLE ( 'classification_date' ) ;
#17 = MANIFOLD_SOLID_BREP ( 'Corps-Déplacer/Copier1[1]', #104 ) ;
#18 = COORDINATED_UNIVERSAL_TIME_OFFSET ( 1, 0, .AHEAD. ) ;
#19 = AXIS2_PLACEMENT_3D ( 'NONE', #123, #45, #91 ) ;
#20 = EDGE_CURVE ( 'NONE', #11, #11, #29, .T. ) ;
#21 = DIRECTION ( 'NONE',  ( -4.275831445896958607E-31, -1.000000000000000000, -1.224646799147353207E-16 ) ) ;
#22 = AXIS2_PLACEMENT_3D ( 'NONE', #82, #68, #209 ) ;
#23 = APPROVAL_PERSON_ORGANIZATION ( #33, #200, #219 ) ;
#24 = DIRECTION ( 'NONE',  ( -3.491481338843133355E-15, 1.224646799147353207E-16, -1.000000000000000000 ) ) ;
#25 = ORIENTED_EDGE ( 'NONE', *, *, #20, .F. ) ;
#26 = ORIENTED_EDGE ( 'NONE', *, *, #167, .F. ) ;
#27 = CC_DESIGN_APPROVAL ( #148, ( #189 ) ) ;
#28 = CARTESIAN_POINT ( 'NONE',  ( 3.142333204958820020E-14, 0.5699999999999988409, 9.000000000000000000 ) ) ;
#29 = CIRCLE ( 'NONE', #144, 1.499999999999998668 ) ;
#30 = PERSON_AND_ORGANIZATION ( #199, #165 ) ;
#31 = CARTESIAN_POINT ( 'NONE',  ( 1.316288464743861212E-13, 1.499999999999995337, 37.69999999999999574 ) ) ;
#32 = CLOSED_SHELL ( 'NONE', ( #84, #192, #137 ) ) ;
#33 = PERSON_AND_ORGANIZATION ( #199, #165 ) ;
#34 = PERSON_AND_ORGANIZATION_ROLE ( 'creator' ) ;
#35 = APPROVAL_DATE_TIME ( #80, #200 ) ;
#36 = UNCERTAINTY_MEASURE_WITH_UNIT (LENGTH_MEASURE( 1.000000000000000082E-05 ), #143, 'distance_accuracy_value', 'NONE');
#37 = PERSON_AND_ORGANIZATION ( #199, #165 ) ;
#38 = LOCAL_TIME ( 11, 22, 52.00000000000000000, #48 ) ;
#39 = DIRECTION ( 'NONE',  ( 3.491481338843133355E-15, -1.224646799147353207E-16, 1.000000000000000000 ) ) ;
#40 = ORIENTED_EDGE ( 'NONE', *, *, #214, .T. ) ;
#41 = ORIENTED_EDGE ( 'NONE', *, *, #52, .F. ) ;
#42 = ADVANCED_FACE ( 'NONE', ( #86, #195 ), #196, .T. ) ;
#43 = FACE_OUTER_BOUND ( 'NONE', #111, .T. ) ;
#44 = CARTESIAN_POINT ( 'NONE',  ( 1.326762908760390423E-13, 1.199999999999995293, 38.00000000000000000 ) ) ;
#45 = DIRECTION ( 'NONE',  ( -3.491481338843133355E-15, 1.229791517316362731E-16, -1.000000000000000000 ) ) ;
#46 = FACE_OUTER_BOUND ( 'NONE', #100, .T. ) ;
#47 = FACE_OUTER_BOUND ( 'NONE', #159, .T. ) ;
#48 = COORDINATED_UNIVERSAL_TIME_OFFSET ( 1, 0, .AHEAD. ) ;
#49 = ADVANCED_FACE ( 'NONE', ( #5 ), #133, .F. ) ;
#50 = APPROVAL_ROLE ( '' ) ;
#51 = CARTESIAN_POINT ( 'NONE',  ( 3.142333204958820020E-14, 1.124819836996388964E-32, 9.000000000000000000 ) ) ;
#52 = EDGE_CURVE ( 'NONE', #101, #101, #12, .T. ) ;
#53 = DIRECTION ( 'NONE',  ( -4.275831445896958607E-31, -1.000000000000000000, -1.224646799147353207E-16 ) ) ;
#54 = CARTESIAN_POINT ( 'NONE',  ( 3.142333204958820020E-14, -1.106812365584726482E-15, 9.000000000000000000 ) ) ;
#55 = DIRECTION ( 'NONE',  ( 3.491481338843133355E-15, -1.224646799147353207E-16, 1.000000000000000000 ) ) ;
#56 = FACE_OUTER_BOUND ( 'NONE', #147, .T. ) ;
#57 = CARTESIAN_POINT ( 'NONE',  ( 4.354159079731244618E-14, 1.499999999999997113, 12.47080725103904086 ) ) ;
#58 = AXIS2_PLACEMENT_3D ( 'NONE', #54, #118, #194 ) ;
#59 = LOCAL_TIME ( 11, 22, 52.00000000000000000, #218 ) ;
#60 = DIRECTION ( 'NONE',  ( 0.0000000000000000000, 1.000000000000000000, 0.0000000000000000000 ) ) ;
#61 = AXIS2_PLACEMENT_3D ( 'NONE', #160, #39, #21 ) ;
#62 = DIRECTION ( 'NONE',  ( -3.491481338843133355E-15, 1.229791517316362731E-16, -1.000000000000000000 ) ) ;
#63 = DATE_TIME_ROLE ( 'creation_date' ) ;
#64 = PRODUCT_DEFINITION_SHAPE ( 'NONE', 'NONE',  #189 ) ;
#65 = SECURITY_CLASSIFICATION_LEVEL ( 'unclassified' ) ;
#66 = PERSON_AND_ORGANIZATION ( #199, #165 ) ;
#67 = AXIS2_PLACEMENT_3D ( 'NONE', #201, #10, #78 ) ;
#68 = DIRECTION ( 'NONE',  ( -3.491481338843133355E-15, 1.224646799147353207E-16, -1.000000000000000000 ) ) ;
#69 = FACE_OUTER_BOUND ( 'NONE', #119, .T. ) ;
#70 = APPROVAL ( #152, 'UNSPECIFIED' ) ;
#71 = ORIENTED_EDGE ( 'NONE', *, *, #116, .T. ) ;
#72 = AXIS2_PLACEMENT_3D ( 'NONE', #134, #55, #210 ) ;
#73 = EDGE_LOOP ( 'NONE', ( #85 ) ) ;
#74 = PLANE ( 'NONE',  #131 ) ;
#75 = CIRCLE ( 'NONE', #8, 0.5699999999999999512 ) ;
#76 = APPLICATION_CONTEXT ( 'configuration controlled 3d designs of mechanical parts and assemblies' ) ;
#77 = CYLINDRICAL_SURFACE ( 'NONE', #19, 0.5699999999999999512 ) ;
#78 = DIRECTION ( 'NONE',  ( 1.000000000000000000, 0.0000000000000000000, 0.0000000000000000000 ) ) ;
#79 = PRODUCT_DEFINITION_FORMATION_WITH_SPECIFIED_SOURCE ( 'ANY', '', #202, .NOT_KNOWN. ) ;
#80 = DATE_AND_TIME ( #188, #172 ) ;
#81 = PERSON_AND_ORGANIZATION ( #199, #165 ) ;
#82 = CARTESIAN_POINT ( 'NONE',  ( 7.243533100758502797E-16, -2.540689399560428506E-17, 0.2074630335317379504 ) ) ;
#83 = MANIFOLD_SOLID_BREP ( 'Corps-Déplacer/Copier1[2]', #32 ) ;
#84 = ADVANCED_FACE ( 'NONE', ( #43 ), #157, .T. ) ;
#85 = ORIENTED_EDGE ( 'NONE', *, *, #52, .T. ) ;
#86 = FACE_OUTER_BOUND ( 'NONE', #97, .T. ) ;
#87 = CC_DESIGN_PERSON_AND_ORGANIZATION_ASSIGNMENT ( #187, #166, ( #151 ) ) ;
#88 = APPLICATION_PROTOCOL_DEFINITION ( 'international standard', 'config_control_design', 1994, #76 ) ;
#89 = DIRECTION ( 'NONE',  ( -3.491481338843133355E-15, 1.224646799147353207E-16, -1.000000000000000000 ) ) ;
#90 = ADVANCED_FACE ( 'NONE', ( #2 ), #74, .F. ) ;
#91 = DIRECTION ( 'NONE',  ( 4.293794133377662246E-31, 1.000000000000000000, 1.229791517316362484E-16 ) ) ;
#92 = FACE_OUTER_BOUND ( 'NONE', #110, .T. ) ;
#93 = APPROVAL_DATE_TIME ( #6, #148 ) ;
#94 = DIRECTION ( 'NONE',  ( 0.0000000000000000000, 1.000000000000000000, 0.0000000000000000000 ) ) ;
#95 = EDGE_LOOP ( 'NONE', ( #25 ) ) ;
#96 = PRODUCT_RELATED_PRODUCT_CATEGORY ( 'detail', '', ( #202 ) ) ;
#97 = EDGE_LOOP ( 'NONE', ( #176 ) ) ;
#98 = DIRECTION ( 'NONE',  ( -3.491481338843133355E-15, 1.224646799147353207E-16, -1.000000000000000000 ) ) ;
#99 = ADVANCED_BREP_SHAPE_REPRESENTATION ( '962904', ( #17, #83, #67 ), #117 ) ;
#100 = EDGE_LOOP ( 'NONE', ( #208 ) ) ;
#101 = VERTEX_POINT ( 'NONE', #44 ) ;
#102 =( NAMED_UNIT ( * ) PLANE_ANGLE_UNIT ( ) SI_UNIT ( $, .RADIAN. ) );
#103 = CC_DESIGN_PERSON_AND_ORGANIZATION_ASSIGNMENT ( #128, #34, ( #189 ) ) ;
#104 = CLOSED_SHELL ( 'NONE', ( #181, #42, #49, #15, #90 ) ) ;
#105 = CC_DESIGN_APPROVAL ( #200, ( #151 ) ) ;
#106 = PERSON_AND_ORGANIZATION_ROLE ( 'design_owner' ) ;
#107 = PERSON_AND_ORGANIZATION ( #199, #165 ) ;
#108 = COORDINATED_UNIVERSAL_TIME_OFFSET ( 1, 0, .AHEAD. ) ;
#109 = DATE_AND_TIME ( #168, #38 ) ;
#110 = EDGE_LOOP ( 'NONE', ( #40 ) ) ;
#111 = EDGE_LOOP ( 'NONE', ( #120 ) ) ;
#112 = CONICAL_SURFACE ( 'NONE', #149, 1.499999999999998668, 0.2617993877991501295 ) ;
#113 = SHAPE_DEFINITION_REPRESENTATION ( #64, #99 ) ;
#114 = DIRECTION ( 'NONE',  ( 3.491481338843133355E-15, -1.224646799147353207E-16, 1.000000000000000000 ) ) ;
#115 = EDGE_LOOP ( 'NONE', ( #26 ) ) ;
#116 = EDGE_CURVE ( 'NONE', #179, #179, #215, .T. ) ;
#117 =( GEOMETRIC_REPRESENTATION_CONTEXT ( 3 ) GLOBAL_UNCERTAINTY_ASSIGNED_CONTEXT ( ( #36 ) ) GLOBAL_UNIT_ASSIGNED_CONTEXT ( ( #143, #102, #203 ) ) REPRESENTATION_CONTEXT ( 'NONE', 'WORKASPACE' ) );
#118 = DIRECTION ( 'NONE',  ( -3.491481338843133355E-15, 1.229791517316362731E-16, -1.000000000000000000 ) ) ;
#119 = EDGE_LOOP ( 'NONE', ( #71 ) ) ;
#120 = ORIENTED_EDGE ( 'NONE', *, *, #214, .F. ) ;
#121 = AXIS2_PLACEMENT_3D ( 'NONE', #211, #174, #94 ) ;
#122 = DIRECTION ( 'NONE',  ( 0.0000000000000000000, 1.000000000000000000, 0.0000000000000000000 ) ) ;
#123 = CARTESIAN_POINT ( 'NONE',  ( 0.0000000000000000000, 0.0000000000000000000, 0.0000000000000000000 ) ) ;
#124 = CARTESIAN_POINT ( 'NONE',  ( 3.142333204958820020E-14, 0.5699999999999988409, 9.000000000000000000 ) ) ;
#125 = MECHANICAL_CONTEXT ( 'NONE', #76, 'mechanical' ) ;
#126 = PERSON_AND_ORGANIZATION_ROLE ( 'design_supplier' ) ;
#127 = CC_DESIGN_PERSON_AND_ORGANIZATION_ASSIGNMENT ( #66, #126, ( #79 ) ) ;
#128 = PERSON_AND_ORGANIZATION ( #199, #165 ) ;
#129 = CALENDAR_DATE ( 2021, 28, 10 ) ;
#130 = EDGE_LOOP ( 'NONE', ( #190 ) ) ;
#131 = AXIS2_PLACEMENT_3D ( 'NONE', #51, #114, #53 ) ;
#132 = CC_DESIGN_APPROVAL ( #70, ( #79 ) ) ;
#133 = PLANE ( 'NONE',  #158 ) ;
#134 = CARTESIAN_POINT ( 'NONE',  ( 1.906192921252232855E-15, -6.686024735685322183E-17, 0.5459553513993090634 ) ) ;
#135 = AXIS2_PLACEMENT_3D ( 'NONE', #213, #163, #60 ) ;
#136 = DIRECTION ( 'NONE',  ( 3.491481338843133355E-15, -1.229791517316362731E-16, 1.000000000000000000 ) ) ;
#137 = ADVANCED_FACE ( 'NONE', ( #69 ), #7, .T. ) ;
#138 = FACE_BOUND ( 'NONE', #115, .T. ) ;
#139 = VERTEX_POINT ( 'NONE', #31 ) ;
#140 = CIRCLE ( 'NONE', #58, 0.5699999999999999512 ) ;
#141 = CARTESIAN_POINT ( 'NONE',  ( 0.0000000000000000000, 0.0000000000000000000, 0.0000000000000000000 ) ) ;
#142 = APPLICATION_CONTEXT ( 'configuration controlled 3d designs of mechanical parts and assemblies' ) ;
#143 =( LENGTH_UNIT ( ) NAMED_UNIT ( * ) SI_UNIT ( .MILLI., .METRE. ) );
#144 = AXIS2_PLACEMENT_3D ( 'NONE', #154, #173, #3 ) ;
#145 = CC_DESIGN_DATE_AND_TIME_ASSIGNMENT ( #184, #63, ( #189 ) ) ;
#146 = PERSON_AND_ORGANIZATION_ROLE ( 'creator' ) ;
#147 = EDGE_LOOP ( 'NONE', ( #4 ) ) ;
#148 = APPROVAL ( #182, 'UNSPECIFIED' ) ;
#149 = AXIS2_PLACEMENT_3D ( 'NONE', #191, #136, #212 ) ;
#150 = AXIS2_PLACEMENT_3D ( 'NONE', #141, #89, #9 ) ;
#151 = SECURITY_CLASSIFICATION ( '', '', #65 ) ;
#152 = APPROVAL_STATUS ( 'not_yet_approved' ) ;
#153 = CC_DESIGN_PERSON_AND_ORGANIZATION_ASSIGNMENT ( #107, #106, ( #202 ) ) ;
#154 = CARTESIAN_POINT ( 'NONE',  ( 4.354159079731244618E-14, -1.533649297141520020E-15, 12.47080725103904086 ) ) ;
#155 = LOCAL_TIME ( 11, 22, 52.00000000000000000, #108 ) ;
#156 = DIRECTION ( 'NONE',  ( 4.275831445896958607E-31, 1.000000000000000000, 1.224646799147353207E-16 ) ) ;
#157 = PLANE ( 'NONE',  #61 ) ;
#158 = AXIS2_PLACEMENT_3D ( 'NONE', #1, #98, #156 ) ;
#159 = EDGE_LOOP ( 'NONE', ( #186 ) ) ;
#160 = CARTESIAN_POINT ( 'NONE',  ( 3.142333204958820020E-14, 1.124819836996388964E-32, 9.000000000000000000 ) ) ;
#161 = CALENDAR_DATE ( 2021, 28, 10 ) ;
#162 = FACE_OUTER_BOUND ( 'NONE', #95, .T. ) ;
#163 = DIRECTION ( 'NONE',  ( -3.491481338843133355E-15, 1.224646799147353207E-16, -1.000000000000000000 ) ) ;
#164 = APPROVAL_ROLE ( '' ) ;
#165 = ORGANIZATION ( 'UNSPECIFIED', 'UNSPECIFIED', '' ) ;
#166 = PERSON_AND_ORGANIZATION_ROLE ( 'classification_officer' ) ;
#167 = EDGE_CURVE ( 'NONE', #178, #178, #140, .T. ) ;
#168 = CALENDAR_DATE ( 2021, 28, 10 ) ;
#169 = CC_DESIGN_PERSON_AND_ORGANIZATION_ASSIGNMENT ( #37, #146, ( #79 ) ) ;
#170 = EDGE_LOOP ( 'NONE', ( #41 ) ) ;
#171 = CARTESIAN_POINT ( 'NONE',  ( 1.326762908760390423E-13, -4.653657836759941941E-15, 38.00000000000000000 ) ) ;
#172 = LOCAL_TIME ( 11, 22, 52.00000000000000000, #18 ) ;
#173 = DIRECTION ( 'NONE',  ( -3.491481338843133355E-15, 1.229791517316362731E-16, -1.000000000000000000 ) ) ;
#174 = DIRECTION ( 'NONE',  ( -3.491481338843133355E-15, 1.224646799147353207E-16, -1.000000000000000000 ) ) ;
#175 = CIRCLE ( 'NONE', #135, 1.499999999999999778 ) ;
#176 = ORIENTED_EDGE ( 'NONE', *, *, #220, .F. ) ;
#177 = CARTESIAN_POINT ( 'NONE',  ( 3.142333204958820020E-14, -1.106812365584726482E-15, 9.000000000000000000 ) ) ;
#178 = VERTEX_POINT ( 'NONE', #28 ) ;
#179 = VERTEX_POINT ( 'NONE', #197 ) ;
#180 = APPLICATION_PROTOCOL_DEFINITION ( 'international standard', 'config_control_design', 1994, #142 ) ;
#181 = ADVANCED_FACE ( 'NONE', ( #162, #47 ), #198, .T. ) ;
#182 = APPROVAL_STATUS ( 'not_yet_approved' ) ;
#183 = CC_DESIGN_DATE_AND_TIME_ASSIGNMENT ( #185, #16, ( #151 ) ) ;
#184 = DATE_AND_TIME ( #221, #155 ) ;
#185 = DATE_AND_TIME ( #129, #59 ) ;
#186 = ORIENTED_EDGE ( 'NONE', *, *, #220, .T. ) ;
#187 = PERSON_AND_ORGANIZATION ( #199, #165 ) ;
#188 = CALENDAR_DATE ( 2021, 28, 10 ) ;
#189 = PRODUCT_DEFINITION ( 'UNKNOWN', '', #79, #205 ) ;
#190 = ORIENTED_EDGE ( 'NONE', *, *, #167, .T. ) ;
#191 = CARTESIAN_POINT ( 'NONE',  ( 4.354159079731244618E-14, -1.533649297141520020E-15, 12.47080725103904086 ) ) ;
#192 = ADVANCED_FACE ( 'NONE', ( #92, #46 ), #77, .T. ) ;
#193 = DIRECTION ( 'NONE',  ( 0.0000000000000000000, 1.000000000000000000, 0.0000000000000000000 ) ) ;
#194 = DIRECTION ( 'NONE',  ( 0.0000000000000000000, 1.000000000000000000, 0.0000000000000000000 ) ) ;
#195 = FACE_BOUND ( 'NONE', #73, .T. ) ;
#196 = CONICAL_SURFACE ( 'NONE', #222, 1.199999999999999956, 0.7853981633974453924 ) ;
#197 = CARTESIAN_POINT ( 'NONE',  ( 7.243533100758499839E-16, -0.5699999999999999512, 0.2074630335317378671 ) ) ;
#198 = CYLINDRICAL_SURFACE ( 'NONE', #150, 1.499999999999998224 ) ;
#199 = PERSON ( 'UNSPECIFIED', 'UNSPECIFIED', 'UNSPECIFIED', ('UNSPECIFIED'), ('UNSPECIFIED'), ('UNSPECIFIED') ) ;
#200 = APPROVAL ( #204, 'UNSPECIFIED' ) ;
#201 = CARTESIAN_POINT ( 'NONE',  ( 0.0000000000000000000, 0.0000000000000000000, 0.0000000000000000000 ) ) ;
#202 = PRODUCT ( '962904', '962904', '', ( #125 ) ) ;
#203 =( NAMED_UNIT ( * ) SI_UNIT ( $, .STERADIAN. ) SOLID_ANGLE_UNIT ( ) );
#204 = APPROVAL_STATUS ( 'not_yet_approved' ) ;
#205 = DESIGN_CONTEXT ( 'detailed design', #142, 'design' ) ;
#206 = CC_DESIGN_SECURITY_CLASSIFICATION ( #151, ( #79 ) ) ;
#207 = APPROVAL_DATE_TIME ( #109, #70 ) ;
#208 = ORIENTED_EDGE ( 'NONE', *, *, #116, .F. ) ;
#209 = DIRECTION ( 'NONE',  ( -5.068236695755884239E-31, -1.000000000000000000, -1.426581805901979635E-16 ) ) ;
#210 = DIRECTION ( 'NONE',  ( -5.135813185032644414E-31, -1.000000000000000000, -1.445602896647343601E-16 ) ) ;
#211 = CARTESIAN_POINT ( 'NONE',  ( 1.326762908760390423E-13, -4.653657836759941941E-15, 38.00000000000000000 ) ) ;
#212 = DIRECTION ( 'NONE',  ( 0.0000000000000000000, -1.000000000000000000, 0.0000000000000000000 ) ) ;
#213 = CARTESIAN_POINT ( 'NONE',  ( 1.316288464743861212E-13, -4.616918432785521081E-15, 37.69999999999999574 ) ) ;
#214 = EDGE_CURVE ( 'NONE', #216, #216, #75, .T. ) ;
#215 = CIRCLE ( 'NONE', #22, 0.5699999999999999512 ) ;
#216 = VERTEX_POINT ( 'NONE', #124 ) ;
#217 = LOCAL_TIME ( 11, 22, 52.00000000000000000, #13 ) ;
#218 = COORDINATED_UNIVERSAL_TIME_OFFSET ( 1, 0, .AHEAD. ) ;
#219 = APPROVAL_ROLE ( '' ) ;
#220 = EDGE_CURVE ( 'NONE', #139, #139, #175, .T. ) ;
#221 = CALENDAR_DATE ( 2021, 28, 10 ) ;
#222 = AXIS2_PLACEMENT_3D ( 'NONE', #171, #24, #193 ) ;
#223 = APPROVAL_PERSON_ORGANIZATION ( #30, #148, #164 ) ;
ENDSEC;
END-ISO-10303-21;
