ISO-10303-21;
HEADER;
FILE_DESCRIPTION (( 'STEP AP203' ),
    '1' );
FILE_NAME ('962903.step',
    '2021-10-28T09:22:51',
    ( '' ),
    ( '' ),
    'SwSTEP 2.0',
    'SolidWorks 2019',
    '' );
FILE_SCHEMA (( 'CONFIG_CONTROL_DESIGN' ));
ENDSEC;

DATA;
#1 = DIRECTION ( 'NONE',  ( 0.0000000000000000000, 1.000000000000000000, 0.0000000000000000000 ) ) ;
#2 = DATE_AND_TIME ( #207, #74 ) ;
#3 = DIRECTION ( 'NONE',  ( -3.491481338843133355E-15, 1.224646799147353207E-16, -1.000000000000000000 ) ) ;
#4 = CARTESIAN_POINT ( 'NONE',  ( 3.142333204958820020E-14, 0.5649999999999988365, 9.000000000000000000 ) ) ;
#5 = AXIS2_PLACEMENT_3D ( 'NONE', #50, #102, #1 ) ;
#6 = CARTESIAN_POINT ( 'NONE',  ( 3.142333204958820020E-14, 0.5649999999999988365, 9.000000000000000000 ) ) ;
#7 = PERSON_AND_ORGANIZATION_ROLE ( 'classification_officer' ) ;
#8 = EDGE_CURVE ( 'NONE', #160, #160, #101, .T. ) ;
#9 = DIRECTION ( 'NONE',  ( 0.0000000000000000000, -1.000000000000000000, 0.0000000000000000000 ) ) ;
#10 = DIRECTION ( 'NONE',  ( 0.0000000000000000000, 0.0000000000000000000, 1.000000000000000000 ) ) ;
#11 = CONICAL_SURFACE ( 'NONE', #70, 1.199999999999999956, 0.7853981633974453924 ) ;
#12 = COORDINATED_UNIVERSAL_TIME_OFFSET ( 1, 0, .AHEAD. ) ;
#13 = PERSON_AND_ORGANIZATION ( #133, #120 ) ;
#14 = AXIS2_PLACEMENT_3D ( 'NONE', #100, #196, #155 ) ;
#15 = ADVANCED_FACE ( 'NONE', ( #223 ), #61, .F. ) ;
#16 =( GEOMETRIC_REPRESENTATION_CONTEXT ( 3 ) GLOBAL_UNCERTAINTY_ASSIGNED_CONTEXT ( ( #147 ) ) GLOBAL_UNIT_ASSIGNED_CONTEXT ( ( #72, #162, #24 ) ) REPRESENTATION_CONTEXT ( 'NONE', 'WORKASPACE' ) );
#17 = CC_DESIGN_DATE_AND_TIME_ASSIGNMENT ( #195, #67, ( #57 ) ) ;
#18 = DIRECTION ( 'NONE',  ( 3.491481338843133355E-15, -1.224646799147353207E-16, 1.000000000000000000 ) ) ;
#19 = PERSON_AND_ORGANIZATION ( #133, #120 ) ;
#20 = DIRECTION ( 'NONE',  ( 0.0000000000000000000, 1.000000000000000000, 0.0000000000000000000 ) ) ;
#21 = CARTESIAN_POINT ( 'NONE',  ( 1.326762908760390423E-13, -4.653657836759941941E-15, 38.00000000000000000 ) ) ;
#22 = APPROVAL_DATE_TIME ( #37, #47 ) ;
#23 = AXIS2_PLACEMENT_3D ( 'NONE', #174, #156, #77 ) ;
#24 =( NAMED_UNIT ( * ) SI_UNIT ( $, .STERADIAN. ) SOLID_ANGLE_UNIT ( ) );
#25 = AXIS2_PLACEMENT_3D ( 'NONE', #130, #121, #138 ) ;
#26 = ORIENTED_EDGE ( 'NONE', *, *, #79, .T. ) ;
#27 = ORIENTED_EDGE ( 'NONE', *, *, #137, .T. ) ;
#28 = ORIENTED_EDGE ( 'NONE', *, *, #176, .F. ) ;
#29 = AXIS2_PLACEMENT_3D ( 'NONE', #76, #180, #152 ) ;
#30 = CARTESIAN_POINT ( 'NONE',  ( 3.142333204958820020E-14, -1.106812365584726482E-15, 9.000000000000000000 ) ) ;
#31 = FACE_BOUND ( 'NONE', #185, .T. ) ;
#32 = APPROVAL_STATUS ( 'not_yet_approved' ) ;
#33 = FACE_OUTER_BOUND ( 'NONE', #62, .T. ) ;
#34 = ADVANCED_FACE ( 'NONE', ( #140 ), #213, .T. ) ;
#35 = DIRECTION ( 'NONE',  ( 0.0000000000000000000, 1.000000000000000000, 0.0000000000000000000 ) ) ;
#36 = CIRCLE ( 'NONE', #204, 1.199999999999999956 ) ;
#37 = DATE_AND_TIME ( #40, #126 ) ;
#38 = COORDINATED_UNIVERSAL_TIME_OFFSET ( 1, 0, .AHEAD. ) ;
#39 = VERTEX_POINT ( 'NONE', #86 ) ;
#40 = CALENDAR_DATE ( 2021, 28, 10 ) ;
#41 = CONICAL_SURFACE ( 'NONE', #209, 1.499999999999995559, 1.221730476396026388 ) ;
#42 = ORIENTED_EDGE ( 'NONE', *, *, #8, .T. ) ;
#43 = ADVANCED_FACE ( 'NONE', ( #53 ), #41, .T. ) ;
#44 = ORIENTED_EDGE ( 'NONE', *, *, #137, .F. ) ;
#45 = ORIENTED_EDGE ( 'NONE', *, *, #90, .F. ) ;
#46 = EDGE_LOOP ( 'NONE', ( #205 ) ) ;
#47 = APPROVAL ( #71, 'UNSPECIFIED' ) ;
#48 = DIRECTION ( 'NONE',  ( 3.491481338843133355E-15, -1.229791517316362731E-16, 1.000000000000000000 ) ) ;
#49 = FACE_OUTER_BOUND ( 'NONE', #148, .T. ) ;
#50 = CARTESIAN_POINT ( 'NONE',  ( 4.360674272606364814E-14, -1.535944119354191047E-15, 12.48946750507688463 ) ) ;
#51 = CARTESIAN_POINT ( 'NONE',  ( 0.0000000000000000000, 0.0000000000000000000, 0.0000000000000000000 ) ) ;
#52 = APPROVAL_DATE_TIME ( #2, #131 ) ;
#53 = FACE_OUTER_BOUND ( 'NONE', #59, .T. ) ;
#54 = APPROVAL_PERSON_ORGANIZATION ( #217, #218, #92 ) ;
#55 = PERSON_AND_ORGANIZATION_ROLE ( 'creator' ) ;
#56 = CALENDAR_DATE ( 2021, 28, 10 ) ;
#57 = SECURITY_CLASSIFICATION ( '', '', #99 ) ;
#58 = COORDINATED_UNIVERSAL_TIME_OFFSET ( 1, 0, .AHEAD. ) ;
#59 = EDGE_LOOP ( 'NONE', ( #42 ) ) ;
#60 = CC_DESIGN_APPROVAL ( #218, ( #165 ) ) ;
#61 = PLANE ( 'NONE',  #25 ) ;
#62 = EDGE_LOOP ( 'NONE', ( #113 ) ) ;
#63 = FACE_OUTER_BOUND ( 'NONE', #94, .T. ) ;
#64 = DIRECTION ( 'NONE',  ( 0.0000000000000000000, 1.000000000000000000, 0.0000000000000000000 ) ) ;
#65 = CIRCLE ( 'NONE', #5, 1.499999999999998668 ) ;
#66 = VERTEX_POINT ( 'NONE', #6 ) ;
#67 = DATE_TIME_ROLE ( 'classification_date' ) ;
#68 = VERTEX_POINT ( 'NONE', #200 ) ;
#69 = PERSON_AND_ORGANIZATION ( #133, #120 ) ;
#70 = AXIS2_PLACEMENT_3D ( 'NONE', #21, #3, #35 ) ;
#71 = APPROVAL_STATUS ( 'not_yet_approved' ) ;
#72 =( LENGTH_UNIT ( ) NAMED_UNIT ( * ) SI_UNIT ( .MILLI., .METRE. ) );
#73 = CARTESIAN_POINT ( 'NONE',  ( 4.360674272606364814E-14, 1.499999999999997113, 12.48946750507688463 ) ) ;
#74 = LOCAL_TIME ( 11, 22, 51.00000000000000000, #157 ) ;
#75 = APPLICATION_CONTEXT ( 'configuration controlled 3d designs of mechanical parts and assemblies' ) ;
#76 = CARTESIAN_POINT ( 'NONE',  ( 7.179993336716761242E-16, -2.518402650441477182E-17, 0.2056431823604069342 ) ) ;
#77 = DIRECTION ( 'NONE',  ( 0.0000000000000000000, 1.000000000000000000, 0.0000000000000000000 ) ) ;
#78 = DIRECTION ( 'NONE',  ( -5.135813185032644414E-31, -1.000000000000000000, -1.445602896647343601E-16 ) ) ;
#79 = EDGE_CURVE ( 'NONE', #158, #158, #109, .T. ) ;
#80 = MANIFOLD_SOLID_BREP ( 'Corps-Déplacer/Copier1[1]', #96 ) ;
#81 = CARTESIAN_POINT ( 'NONE',  ( 7.179993336716758283E-16, -0.5649999999999999467, 0.2056431823604068510 ) ) ;
#82 = DIRECTION ( 'NONE',  ( 3.491481338843133355E-15, -1.224646799147353207E-16, 1.000000000000000000 ) ) ;
#83 = FACE_OUTER_BOUND ( 'NONE', #183, .T. ) ;
#84 = MANIFOLD_SOLID_BREP ( 'Corps-Déplacer/Copier1[2]', #201 ) ;
#85 = CC_DESIGN_DATE_AND_TIME_ASSIGNMENT ( #142, #125, ( #165 ) ) ;
#86 = CARTESIAN_POINT ( 'NONE',  ( 1.316288464743861212E-13, 1.499999999999995337, 37.69999999999999574 ) ) ;
#87 = CALENDAR_DATE ( 2021, 28, 10 ) ;
#88 = LOCAL_TIME ( 11, 22, 51.00000000000000000, #38 ) ;
#89 = ADVANCED_BREP_SHAPE_REPRESENTATION ( '962903', ( #80, #84, #128 ), #16 ) ;
#90 = EDGE_CURVE ( 'NONE', #66, #66, #136, .T. ) ;
#91 = MECHANICAL_CONTEXT ( 'NONE', #75, 'mechanical' ) ;
#92 = APPROVAL_ROLE ( '' ) ;
#93 = ORIENTED_EDGE ( 'NONE', *, *, #79, .F. ) ;
#94 = EDGE_LOOP ( 'NONE', ( #111 ) ) ;
#95 = APPROVAL_PERSON_ORGANIZATION ( #198, #47, #107 ) ;
#96 = CLOSED_SHELL ( 'NONE', ( #184, #115, #15, #189, #203 ) ) ;
#97 = DIRECTION ( 'NONE',  ( 0.0000000000000000000, 1.000000000000000000, 0.0000000000000000000 ) ) ;
#98 = FACE_OUTER_BOUND ( 'NONE', #46, .T. ) ;
#99 = SECURITY_CLASSIFICATION_LEVEL ( 'unclassified' ) ;
#100 = CARTESIAN_POINT ( 'NONE',  ( 3.142333204958820020E-14, 1.124819836996388964E-32, 9.000000000000000000 ) ) ;
#101 = CIRCLE ( 'NONE', #29, 0.5649999999999999467 ) ;
#102 = DIRECTION ( 'NONE',  ( -3.491481338843133355E-15, 1.229791517316362731E-16, -1.000000000000000000 ) ) ;
#103 = PERSON_AND_ORGANIZATION ( #133, #120 ) ;
#104 = CARTESIAN_POINT ( 'NONE',  ( 1.906192921252232855E-15, -6.686024735685322183E-17, 0.5459553513993090634 ) ) ;
#105 = DIRECTION ( 'NONE',  ( 1.000000000000000000, 0.0000000000000000000, 0.0000000000000000000 ) ) ;
#106 = CC_DESIGN_PERSON_AND_ORGANIZATION_ASSIGNMENT ( #122, #212, ( #219 ) ) ;
#107 = APPROVAL_ROLE ( '' ) ;
#108 = VERTEX_POINT ( 'NONE', #73 ) ;
#109 = CIRCLE ( 'NONE', #166, 0.5649999999999999467 ) ;
#110 = EDGE_LOOP ( 'NONE', ( #220 ) ) ;
#111 = ORIENTED_EDGE ( 'NONE', *, *, #149, .T. ) ;
#112 = AXIS2_PLACEMENT_3D ( 'NONE', #206, #48, #9 ) ;
#113 = ORIENTED_EDGE ( 'NONE', *, *, #176, .T. ) ;
#114 = PLANE ( 'NONE',  #187 ) ;
#115 = ADVANCED_FACE ( 'NONE', ( #186, #161 ), #11, .T. ) ;
#116 = CONICAL_SURFACE ( 'NONE', #112, 1.499999999999998668, 0.2617993877991501295 ) ;
#117 = FACE_OUTER_BOUND ( 'NONE', #110, .T. ) ;
#118 = CARTESIAN_POINT ( 'NONE',  ( 1.316288464743861212E-13, -4.616918432785521081E-15, 37.69999999999999574 ) ) ;
#119 = CYLINDRICAL_SURFACE ( 'NONE', #163, 0.5649999999999999467 ) ;
#120 = ORGANIZATION ( 'UNSPECIFIED', 'UNSPECIFIED', '' ) ;
#121 = DIRECTION ( 'NONE',  ( -3.491481338843133355E-15, 1.224646799147353207E-16, -1.000000000000000000 ) ) ;
#122 = PERSON_AND_ORGANIZATION ( #133, #120 ) ;
#123 = APPLICATION_PROTOCOL_DEFINITION ( 'international standard', 'config_control_design', 1994, #75 ) ;
#124 = APPLICATION_PROTOCOL_DEFINITION ( 'international standard', 'config_control_design', 1994, #222 ) ;
#125 = DATE_TIME_ROLE ( 'creation_date' ) ;
#126 = LOCAL_TIME ( 11, 22, 51.00000000000000000, #58 ) ;
#127 = CC_DESIGN_PERSON_AND_ORGANIZATION_ASSIGNMENT ( #69, #215, ( #165 ) ) ;
#128 = AXIS2_PLACEMENT_3D ( 'NONE', #177, #10, #105 ) ;
#129 = CC_DESIGN_PERSON_AND_ORGANIZATION_ASSIGNMENT ( #103, #7, ( #57 ) ) ;
#130 = CARTESIAN_POINT ( 'NONE',  ( 1.326762908760390423E-13, 8.998558695971077224E-33, 38.00000000000000000 ) ) ;
#131 = APPROVAL ( #32, 'UNSPECIFIED' ) ;
#132 = EDGE_LOOP ( 'NONE', ( #164 ) ) ;
#133 = PERSON ( 'UNSPECIFIED', 'UNSPECIFIED', 'UNSPECIFIED', ('UNSPECIFIED'), ('UNSPECIFIED'), ('UNSPECIFIED') ) ;
#134 = DIRECTION ( 'NONE',  ( -3.491481338843133355E-15, 1.224646799147353207E-16, -1.000000000000000000 ) ) ;
#135 = DIRECTION ( 'NONE',  ( -3.491481338843133355E-15, 1.224646799147353207E-16, -1.000000000000000000 ) ) ;
#136 = CIRCLE ( 'NONE', #23, 0.5649999999999999467 ) ;
#137 = EDGE_CURVE ( 'NONE', #68, #68, #36, .T. ) ;
#138 = DIRECTION ( 'NONE',  ( 4.275831445896958607E-31, 1.000000000000000000, 1.224646799147353207E-16 ) ) ;
#139 = COORDINATED_UNIVERSAL_TIME_OFFSET ( 1, 0, .AHEAD. ) ;
#140 = FACE_OUTER_BOUND ( 'NONE', #221, .T. ) ;
#141 = CIRCLE ( 'NONE', #178, 1.499999999999999778 ) ;
#142 = DATE_AND_TIME ( #56, #88 ) ;
#143 = DATE_AND_TIME ( #87, #199 ) ;
#144 = APPROVAL_STATUS ( 'not_yet_approved' ) ;
#145 = PERSON_AND_ORGANIZATION_ROLE ( 'design_owner' ) ;
#146 = ADVANCED_FACE ( 'NONE', ( #83, #117 ), #119, .T. ) ;
#147 = UNCERTAINTY_MEASURE_WITH_UNIT (LENGTH_MEASURE( 1.000000000000000082E-05 ), #72, 'distance_accuracy_value', 'NONE');
#148 = EDGE_LOOP ( 'NONE', ( #28 ) ) ;
#149 = EDGE_CURVE ( 'NONE', #39, #39, #141, .T. ) ;
#150 = PRODUCT_RELATED_PRODUCT_CATEGORY ( 'detail', '', ( #170 ) ) ;
#151 = DESIGN_CONTEXT ( 'detailed design', #222, 'design' ) ;
#152 = DIRECTION ( 'NONE',  ( -5.113088347930715034E-31, -1.000000000000000000, -1.439206423653324577E-16 ) ) ;
#153 = AXIS2_PLACEMENT_3D ( 'NONE', #51, #134, #191 ) ;
#154 = CC_DESIGN_PERSON_AND_ORGANIZATION_ASSIGNMENT ( #19, #55, ( #219 ) ) ;
#155 = DIRECTION ( 'NONE',  ( -4.275831445896958607E-31, -1.000000000000000000, -1.224646799147353207E-16 ) ) ;
#156 = DIRECTION ( 'NONE',  ( -3.491481338843133355E-15, 1.229791517316362731E-16, -1.000000000000000000 ) ) ;
#157 = COORDINATED_UNIVERSAL_TIME_OFFSET ( 1, 0, .AHEAD. ) ;
#158 = VERTEX_POINT ( 'NONE', #4 ) ;
#159 = CC_DESIGN_APPROVAL ( #47, ( #219 ) ) ;
#160 = VERTEX_POINT ( 'NONE', #81 ) ;
#161 = FACE_BOUND ( 'NONE', #181, .T. ) ;
#162 =( NAMED_UNIT ( * ) PLANE_ANGLE_UNIT ( ) SI_UNIT ( $, .RADIAN. ) );
#163 = AXIS2_PLACEMENT_3D ( 'NONE', #211, #190, #192 ) ;
#164 = ORIENTED_EDGE ( 'NONE', *, *, #149, .F. ) ;
#165 = PRODUCT_DEFINITION ( 'UNKNOWN', '', #219, #151 ) ;
#166 = AXIS2_PLACEMENT_3D ( 'NONE', #30, #210, #97 ) ;
#167 = CARTESIAN_POINT ( 'NONE',  ( 1.326762908760390423E-13, -4.653657836759941941E-15, 38.00000000000000000 ) ) ;
#168 = DIRECTION ( 'NONE',  ( -4.275831445896958607E-31, -1.000000000000000000, -1.224646799147353207E-16 ) ) ;
#169 = CARTESIAN_POINT ( 'NONE',  ( 3.142333204958820020E-14, 1.124819836996388964E-32, 9.000000000000000000 ) ) ;
#170 = PRODUCT ( '962903', '962903', '', ( #91 ) ) ;
#171 = CALENDAR_DATE ( 2021, 28, 10 ) ;
#172 = CYLINDRICAL_SURFACE ( 'NONE', #153, 1.499999999999998224 ) ;
#173 = APPROVAL_ROLE ( '' ) ;
#174 = CARTESIAN_POINT ( 'NONE',  ( 3.142333204958820020E-14, -1.106812365584726482E-15, 9.000000000000000000 ) ) ;
#175 = PERSON_AND_ORGANIZATION ( #133, #120 ) ;
#176 = EDGE_CURVE ( 'NONE', #108, #108, #65, .T. ) ;
#177 = CARTESIAN_POINT ( 'NONE',  ( 0.0000000000000000000, 0.0000000000000000000, 0.0000000000000000000 ) ) ;
#178 = AXIS2_PLACEMENT_3D ( 'NONE', #118, #208, #20 ) ;
#179 = CC_DESIGN_APPROVAL ( #131, ( #57 ) ) ;
#180 = DIRECTION ( 'NONE',  ( -3.491481338843133355E-15, 1.224646799147353207E-16, -1.000000000000000000 ) ) ;
#181 = EDGE_LOOP ( 'NONE', ( #27 ) ) ;
#182 = LOCAL_TIME ( 11, 22, 51.00000000000000000, #139 ) ;
#183 = EDGE_LOOP ( 'NONE', ( #26 ) ) ;
#184 = ADVANCED_FACE ( 'NONE', ( #49, #63 ), #172, .T. ) ;
#185 = EDGE_LOOP ( 'NONE', ( #45 ) ) ;
#186 = FACE_OUTER_BOUND ( 'NONE', #132, .T. ) ;
#187 = AXIS2_PLACEMENT_3D ( 'NONE', #169, #82, #168 ) ;
#188 = SHAPE_DEFINITION_REPRESENTATION ( #193, #89 ) ;
#189 = ADVANCED_FACE ( 'NONE', ( #31, #33 ), #116, .T. ) ;
#190 = DIRECTION ( 'NONE',  ( -3.491481338843133355E-15, 1.229791517316362731E-16, -1.000000000000000000 ) ) ;
#191 = DIRECTION ( 'NONE',  ( 4.275831445896958607E-31, 1.000000000000000000, 1.224646799147353207E-16 ) ) ;
#192 = DIRECTION ( 'NONE',  ( 4.293794133377662246E-31, 1.000000000000000000, 1.229791517316362731E-16 ) ) ;
#193 = PRODUCT_DEFINITION_SHAPE ( 'NONE', 'NONE',  #165 ) ;
#194 = CC_DESIGN_SECURITY_CLASSIFICATION ( #57, ( #219 ) ) ;
#195 = DATE_AND_TIME ( #171, #182 ) ;
#196 = DIRECTION ( 'NONE',  ( 3.491481338843133355E-15, -1.224646799147353207E-16, 1.000000000000000000 ) ) ;
#197 = APPROVAL_DATE_TIME ( #143, #218 ) ;
#198 = PERSON_AND_ORGANIZATION ( #133, #120 ) ;
#199 = LOCAL_TIME ( 11, 22, 51.00000000000000000, #12 ) ;
#200 = CARTESIAN_POINT ( 'NONE',  ( 1.326762908760390423E-13, 1.199999999999995293, 38.00000000000000000 ) ) ;
#201 = CLOSED_SHELL ( 'NONE', ( #34, #146, #43 ) ) ;
#202 = EDGE_LOOP ( 'NONE', ( #44 ) ) ;
#203 = ADVANCED_FACE ( 'NONE', ( #98 ), #114, .F. ) ;
#204 = AXIS2_PLACEMENT_3D ( 'NONE', #167, #135, #64 ) ;
#205 = ORIENTED_EDGE ( 'NONE', *, *, #90, .T. ) ;
#206 = CARTESIAN_POINT ( 'NONE',  ( 4.360674272606364814E-14, -1.535944119354191047E-15, 12.48946750507688463 ) ) ;
#207 = CALENDAR_DATE ( 2021, 28, 10 ) ;
#208 = DIRECTION ( 'NONE',  ( -3.491481338843133355E-15, 1.224646799147353207E-16, -1.000000000000000000 ) ) ;
#209 = AXIS2_PLACEMENT_3D ( 'NONE', #104, #18, #78 ) ;
#210 = DIRECTION ( 'NONE',  ( -3.491481338843133355E-15, 1.229791517316362731E-16, -1.000000000000000000 ) ) ;
#211 = CARTESIAN_POINT ( 'NONE',  ( 0.0000000000000000000, 0.0000000000000000000, 0.0000000000000000000 ) ) ;
#212 = PERSON_AND_ORGANIZATION_ROLE ( 'design_supplier' ) ;
#213 = PLANE ( 'NONE',  #14 ) ;
#214 = CC_DESIGN_PERSON_AND_ORGANIZATION_ASSIGNMENT ( #13, #145, ( #170 ) ) ;
#215 = PERSON_AND_ORGANIZATION_ROLE ( 'creator' ) ;
#216 = APPROVAL_PERSON_ORGANIZATION ( #175, #131, #173 ) ;
#217 = PERSON_AND_ORGANIZATION ( #133, #120 ) ;
#218 = APPROVAL ( #144, 'UNSPECIFIED' ) ;
#219 = PRODUCT_DEFINITION_FORMATION_WITH_SPECIFIED_SOURCE ( 'ANY', '', #170, .NOT_KNOWN. ) ;
#220 = ORIENTED_EDGE ( 'NONE', *, *, #8, .F. ) ;
#221 = EDGE_LOOP ( 'NONE', ( #93 ) ) ;
#222 = APPLICATION_CONTEXT ( 'configuration controlled 3d designs of mechanical parts and assemblies' ) ;
#223 = FACE_OUTER_BOUND ( 'NONE', #202, .T. ) ;
ENDSEC;
END-ISO-10303-21;
