ISO-10303-21;
HEADER;
FILE_DESCRIPTION (( 'STEP AP203' ),
    '1' );
FILE_NAME ('962902.step',
    '2021-10-28T09:22:51',
    ( '' ),
    ( '' ),
    'SwSTEP 2.0',
    'SolidWorks 2019',
    '' );
FILE_SCHEMA (( 'CONFIG_CONTROL_DESIGN' ));
ENDSEC;

DATA;
#1 = ORIENTED_EDGE ( 'NONE', *, *, #2, .F. ) ;
#2 = EDGE_CURVE ( 'NONE', #166, #166, #33, .T. ) ;
#3 = EDGE_LOOP ( 'NONE', ( #49 ) ) ;
#4 = ORGANIZATION ( 'UNSPECIFIED', 'UNSPECIFIED', '' ) ;
#5 = CARTESIAN_POINT ( 'NONE',  ( 4.367189465481486272E-14, 1.499999999999997113, 12.50812775911473018 ) ) ;
#6 = DIRECTION ( 'NONE',  ( 3.491481338843133355E-15, -1.224646799147353207E-16, 1.000000000000000000 ) ) ;
#7 = CARTESIAN_POINT ( 'NONE',  ( 3.142333204958820020E-14, 1.124819836996388964E-32, 9.000000000000000000 ) ) ;
#8 = MANIFOLD_SOLID_BREP ( 'Corps-Déplacer/Copier1[2]', #205 ) ;
#9 = DIRECTION ( 'NONE',  ( 4.293794133377662246E-31, 1.000000000000000000, 1.229791517316362731E-16 ) ) ;
#10 = DIRECTION ( 'NONE',  ( -3.491481338843133355E-15, 1.224646799147353207E-16, -1.000000000000000000 ) ) ;
#11 =( NAMED_UNIT ( * ) SI_UNIT ( $, .STERADIAN. ) SOLID_ANGLE_UNIT ( ) );
#12 = PERSON_AND_ORGANIZATION ( #217, #4 ) ;
#13 = PERSON_AND_ORGANIZATION ( #217, #4 ) ;
#14 = PERSON_AND_ORGANIZATION_ROLE ( 'creator' ) ;
#15 = PRODUCT_DEFINITION_FORMATION_WITH_SPECIFIED_SOURCE ( 'ANY', '', #215, .NOT_KNOWN. ) ;
#16 = ORIENTED_EDGE ( 'NONE', *, *, #129, .F. ) ;
#17 = AXIS2_PLACEMENT_3D ( 'NONE', #143, #100, #87 ) ;
#18 = ORIENTED_EDGE ( 'NONE', *, *, #86, .T. ) ;
#19 = FACE_OUTER_BOUND ( 'NONE', #62, .T. ) ;
#20 = CC_DESIGN_APPROVAL ( #151, ( #206 ) ) ;
#21 = DIRECTION ( 'NONE',  ( 0.0000000000000000000, 1.000000000000000000, 0.0000000000000000000 ) ) ;
#22 = DIRECTION ( 'NONE',  ( -3.491481338843133355E-15, 1.229791517316362731E-16, -1.000000000000000000 ) ) ;
#23 = DIRECTION ( 'NONE',  ( -3.491481338843133355E-15, 1.229791517316362731E-16, -1.000000000000000000 ) ) ;
#24 = AXIS2_PLACEMENT_3D ( 'NONE', #7, #6, #70 ) ;
#25 = CARTESIAN_POINT ( 'NONE',  ( 3.142333204958820020E-14, 1.124819836996388964E-32, 9.000000000000000000 ) ) ;
#26 = CALENDAR_DATE ( 2021, 28, 10 ) ;
#27 = EDGE_CURVE ( 'NONE', #72, #72, #152, .T. ) ;
#28 = CIRCLE ( 'NONE', #50, 0.5600000000000000533 ) ;
#29 = SECURITY_CLASSIFICATION_LEVEL ( 'unclassified' ) ;
#30 = APPROVAL_DATE_TIME ( #153, #151 ) ;
#31 = ADVANCED_FACE ( 'NONE', ( #144 ), #132, .T. ) ;
#32 = APPROVAL ( #146, 'UNSPECIFIED' ) ;
#33 = CIRCLE ( 'NONE', #41, 0.5600000000000000533 ) ;
#34 = ORIENTED_EDGE ( 'NONE', *, *, #102, .F. ) ;
#35 = DIRECTION ( 'NONE',  ( 4.275831445896958607E-31, 1.000000000000000000, 1.224646799147353207E-16 ) ) ;
#36 = FACE_OUTER_BOUND ( 'NONE', #139, .T. ) ;
#37 = LOCAL_TIME ( 11, 22, 51.00000000000000000, #189 ) ;
#38 = DIRECTION ( 'NONE',  ( -5.135813185032644414E-31, -1.000000000000000000, -1.445602896647343601E-16 ) ) ;
#39 = CARTESIAN_POINT ( 'NONE',  ( 1.326762908760390423E-13, -4.653657836759941941E-15, 38.00000000000000000 ) ) ;
#40 = CARTESIAN_POINT ( 'NONE',  ( 1.316288464743861212E-13, -4.616918432785521081E-15, 37.69999999999999574 ) ) ;
#41 = AXIS2_PLACEMENT_3D ( 'NONE', #51, #99, #159 ) ;
#42 = DIRECTION ( 'NONE',  ( 1.000000000000000000, 0.0000000000000000000, 0.0000000000000000000 ) ) ;
#43 = APPROVAL_STATUS ( 'not_yet_approved' ) ;
#44 = APPROVAL_ROLE ( '' ) ;
#45 = AXIS2_PLACEMENT_3D ( 'NONE', #117, #141, #180 ) ;
#46 = DATE_AND_TIME ( #219, #138 ) ;
#47 = PERSON_AND_ORGANIZATION_ROLE ( 'design_supplier' ) ;
#48 = CARTESIAN_POINT ( 'NONE',  ( 4.367189465481486272E-14, -1.538238941566862073E-15, 12.50812775911473018 ) ) ;
#49 = ORIENTED_EDGE ( 'NONE', *, *, #86, .F. ) ;
#50 = AXIS2_PLACEMENT_3D ( 'NONE', #101, #103, #195 ) ;
#51 = CARTESIAN_POINT ( 'NONE',  ( 3.142333204958820020E-14, -1.106812365584726482E-15, 9.000000000000000000 ) ) ;
#52 = DIRECTION ( 'NONE',  ( -3.491481338843133355E-15, 1.224646799147353207E-16, -1.000000000000000000 ) ) ;
#53 = DIRECTION ( 'NONE',  ( 0.0000000000000000000, 1.000000000000000000, 0.0000000000000000000 ) ) ;
#54 = CARTESIAN_POINT ( 'NONE',  ( 1.906192921252232855E-15, -6.686024735685322183E-17, 0.5459553513993090634 ) ) ;
#55 = FACE_BOUND ( 'NONE', #98, .T. ) ;
#56 = APPLICATION_PROTOCOL_DEFINITION ( 'international standard', 'config_control_design', 1994, #169 ) ;
#57 = APPROVAL_PERSON_ORGANIZATION ( #93, #32, #44 ) ;
#58 = PERSON_AND_ORGANIZATION_ROLE ( 'design_owner' ) ;
#59 = PERSON_AND_ORGANIZATION_ROLE ( 'creator' ) ;
#60 = PERSON_AND_ORGANIZATION ( #217, #4 ) ;
#61 = AXIS2_PLACEMENT_3D ( 'NONE', #186, #23, #53 ) ;
#62 = EDGE_LOOP ( 'NONE', ( #176 ) ) ;
#63 = ADVANCED_FACE ( 'NONE', ( #106, #213 ), #210, .T. ) ;
#64 = ORIENTED_EDGE ( 'NONE', *, *, #112, .T. ) ;
#65 = EDGE_LOOP ( 'NONE', ( #34 ) ) ;
#66 = ADVANCED_FACE ( 'NONE', ( #67, #19 ), #105, .T. ) ;
#67 = FACE_OUTER_BOUND ( 'NONE', #131, .T. ) ;
#68 = DIRECTION ( 'NONE',  ( -4.275831445896958607E-31, -1.000000000000000000, -1.224646799147353207E-16 ) ) ;
#69 = PRODUCT_DEFINITION ( 'UNKNOWN', '', #15, #92 ) ;
#70 = DIRECTION ( 'NONE',  ( -4.275831445896958607E-31, -1.000000000000000000, -1.224646799147353207E-16 ) ) ;
#71 = CIRCLE ( 'NONE', #123, 1.499999999999999778 ) ;
#72 = VERTEX_POINT ( 'NONE', #5 ) ;
#73 = DIRECTION ( 'NONE',  ( -3.491481338843133355E-15, 1.224646799147353207E-16, -1.000000000000000000 ) ) ;
#74 = APPLICATION_PROTOCOL_DEFINITION ( 'international standard', 'config_control_design', 1994, #179 ) ;
#75 = CIRCLE ( 'NONE', #61, 0.5600000000000000533 ) ;
#76 = CARTESIAN_POINT ( 'NONE',  ( 3.142333204958820020E-14, 0.5599999999999989431, 9.000000000000000000 ) ) ;
#77 = DATE_AND_TIME ( #216, #185 ) ;
#78 = CONICAL_SURFACE ( 'NONE', #107, 1.199999999999999956, 0.7853981633974453924 ) ;
#79 = CC_DESIGN_APPROVAL ( #135, ( #15 ) ) ;
#80 = CALENDAR_DATE ( 2021, 28, 10 ) ;
#81 = APPROVAL_STATUS ( 'not_yet_approved' ) ;
#82 = CLOSED_SHELL ( 'NONE', ( #66, #174, #154, #165, #148 ) ) ;
#83 = ORIENTED_EDGE ( 'NONE', *, *, #112, .F. ) ;
#84 = PLANE ( 'NONE',  #175 ) ;
#85 = VERTEX_POINT ( 'NONE', #122 ) ;
#86 = EDGE_CURVE ( 'NONE', #85, #85, #184, .T. ) ;
#87 = DIRECTION ( 'NONE',  ( 4.275831445896958607E-31, 1.000000000000000000, 1.224646799147353207E-16 ) ) ;
#88 = PLANE ( 'NONE',  #17 ) ;
#89 = VERTEX_POINT ( 'NONE', #76 ) ;
#90 = DATE_AND_TIME ( #26, #37 ) ;
#91 = VERTEX_POINT ( 'NONE', #187 ) ;
#92 = DESIGN_CONTEXT ( 'detailed design', #179, 'design' ) ;
#93 = PERSON_AND_ORGANIZATION ( #217, #4 ) ;
#94 = AXIS2_PLACEMENT_3D ( 'NONE', #214, #111, #42 ) ;
#95 =( GEOMETRIC_REPRESENTATION_CONTEXT ( 3 ) GLOBAL_UNCERTAINTY_ASSIGNED_CONTEXT ( ( #113 ) ) GLOBAL_UNIT_ASSIGNED_CONTEXT ( ( #190, #110, #11 ) ) REPRESENTATION_CONTEXT ( 'NONE', 'WORKASPACE' ) );
#96 = AXIS2_PLACEMENT_3D ( 'NONE', #39, #52, #208 ) ;
#97 = APPROVAL_ROLE ( '' ) ;
#98 = EDGE_LOOP ( 'NONE', ( #1 ) ) ;
#99 = DIRECTION ( 'NONE',  ( -3.491481338843133355E-15, 1.229791517316362731E-16, -1.000000000000000000 ) ) ;
#100 = DIRECTION ( 'NONE',  ( -3.491481338843133355E-15, 1.224646799147353207E-16, -1.000000000000000000 ) ) ;
#101 = CARTESIAN_POINT ( 'NONE',  ( 7.116453572675022645E-16, -2.496115901322527090E-17, 0.2038233311890759458 ) ) ;
#102 = EDGE_CURVE ( 'NONE', #197, #197, #71, .T. ) ;
#103 = DIRECTION ( 'NONE',  ( -3.491481338843133355E-15, 1.224646799147353207E-16, -1.000000000000000000 ) ) ;
#104 = PRODUCT_RELATED_PRODUCT_CATEGORY ( 'detail', '', ( #215 ) ) ;
#105 = CYLINDRICAL_SURFACE ( 'NONE', #221, 1.499999999999998224 ) ;
#106 = FACE_OUTER_BOUND ( 'NONE', #136, .T. ) ;
#107 = AXIS2_PLACEMENT_3D ( 'NONE', #196, #10, #21 ) ;
#108 = CC_DESIGN_APPROVAL ( #32, ( #69 ) ) ;
#109 = ADVANCED_FACE ( 'NONE', ( #36 ), #162, .T. ) ;
#110 =( NAMED_UNIT ( * ) PLANE_ANGLE_UNIT ( ) SI_UNIT ( $, .RADIAN. ) );
#111 = DIRECTION ( 'NONE',  ( 0.0000000000000000000, 0.0000000000000000000, 1.000000000000000000 ) ) ;
#112 = EDGE_CURVE ( 'NONE', #89, #89, #75, .T. ) ;
#113 = UNCERTAINTY_MEASURE_WITH_UNIT (LENGTH_MEASURE( 1.000000000000000082E-05 ), #190, 'distance_accuracy_value', 'NONE');
#114 = APPROVAL_PERSON_ORGANIZATION ( #191, #151, #97 ) ;
#115 = COORDINATED_UNIVERSAL_TIME_OFFSET ( 1, 0, .AHEAD. ) ;
#116 = CC_DESIGN_SECURITY_CLASSIFICATION ( #206, ( #15 ) ) ;
#117 = CARTESIAN_POINT ( 'NONE',  ( 4.367189465481486272E-14, -1.538238941566862073E-15, 12.50812775911473018 ) ) ;
#118 = DIRECTION ( 'NONE',  ( 0.0000000000000000000, 1.000000000000000000, 0.0000000000000000000 ) ) ;
#119 = FACE_BOUND ( 'NONE', #192, .T. ) ;
#120 = CC_DESIGN_DATE_AND_TIME_ASSIGNMENT ( #46, #222, ( #206 ) ) ;
#121 = FACE_OUTER_BOUND ( 'NONE', #65, .T. ) ;
#122 = CARTESIAN_POINT ( 'NONE',  ( 1.326762908760390423E-13, 1.199999999999995293, 38.00000000000000000 ) ) ;
#123 = AXIS2_PLACEMENT_3D ( 'NONE', #40, #183, #118 ) ;
#124 = COORDINATED_UNIVERSAL_TIME_OFFSET ( 1, 0, .AHEAD. ) ;
#125 = PERSON_AND_ORGANIZATION ( #217, #4 ) ;
#126 = APPROVAL_ROLE ( '' ) ;
#127 = PERSON_AND_ORGANIZATION ( #217, #4 ) ;
#128 = SHAPE_DEFINITION_REPRESENTATION ( #188, #130 ) ;
#129 = EDGE_CURVE ( 'NONE', #91, #91, #28, .T. ) ;
#130 = ADVANCED_BREP_SHAPE_REPRESENTATION ( '962902', ( #157, #8, #94 ), #95 ) ;
#131 = EDGE_LOOP ( 'NONE', ( #134 ) ) ;
#132 = CONICAL_SURFACE ( 'NONE', #211, 1.499999999999995559, 1.221730476396026388 ) ;
#133 = APPROVAL_PERSON_ORGANIZATION ( #12, #135, #126 ) ;
#134 = ORIENTED_EDGE ( 'NONE', *, *, #27, .F. ) ;
#135 = APPROVAL ( #43, 'UNSPECIFIED' ) ;
#136 = EDGE_LOOP ( 'NONE', ( #64 ) ) ;
#137 = AXIS2_PLACEMENT_3D ( 'NONE', #48, #22, #212 ) ;
#138 = LOCAL_TIME ( 11, 22, 51.00000000000000000, #150 ) ;
#139 = EDGE_LOOP ( 'NONE', ( #83 ) ) ;
#140 = CARTESIAN_POINT ( 'NONE',  ( 0.0000000000000000000, 0.0000000000000000000, 0.0000000000000000000 ) ) ;
#141 = DIRECTION ( 'NONE',  ( 3.491481338843133355E-15, -1.229791517316362731E-16, 1.000000000000000000 ) ) ;
#142 = CONICAL_SURFACE ( 'NONE', #45, 1.499999999999998668, 0.2617993877991500740 ) ;
#143 = CARTESIAN_POINT ( 'NONE',  ( 1.326762908760390423E-13, 8.998558695971077224E-33, 38.00000000000000000 ) ) ;
#144 = FACE_OUTER_BOUND ( 'NONE', #203, .T. ) ;
#145 = CARTESIAN_POINT ( 'NONE',  ( 1.316288464743861212E-13, 1.499999999999995337, 37.69999999999999574 ) ) ;
#146 = APPROVAL_STATUS ( 'not_yet_approved' ) ;
#147 = LOCAL_TIME ( 11, 22, 51.00000000000000000, #200 ) ;
#148 = ADVANCED_FACE ( 'NONE', ( #167 ), #84, .F. ) ;
#149 = MECHANICAL_CONTEXT ( 'NONE', #169, 'mechanical' ) ;
#150 = COORDINATED_UNIVERSAL_TIME_OFFSET ( 1, 0, .AHEAD. ) ;
#151 = APPROVAL ( #81, 'UNSPECIFIED' ) ;
#152 = CIRCLE ( 'NONE', #137, 1.499999999999998668 ) ;
#153 = DATE_AND_TIME ( #80, #198 ) ;
#154 = ADVANCED_FACE ( 'NONE', ( #160 ), #88, .F. ) ;
#155 = ORIENTED_EDGE ( 'NONE', *, *, #27, .T. ) ;
#156 = EDGE_LOOP ( 'NONE', ( #16 ) ) ;
#157 = MANIFOLD_SOLID_BREP ( 'Corps-Déplacer/Copier1[1]', #82 ) ;
#158 = EDGE_LOOP ( 'NONE', ( #223 ) ) ;
#159 = DIRECTION ( 'NONE',  ( 0.0000000000000000000, 1.000000000000000000, 0.0000000000000000000 ) ) ;
#160 = FACE_OUTER_BOUND ( 'NONE', #3, .T. ) ;
#161 = CC_DESIGN_PERSON_AND_ORGANIZATION_ASSIGNMENT ( #170, #173, ( #206 ) ) ;
#162 = PLANE ( 'NONE',  #24 ) ;
#163 = DIRECTION ( 'NONE',  ( -3.491481338843133355E-15, 1.229791517316362731E-16, -1.000000000000000000 ) ) ;
#164 = AXIS2_PLACEMENT_3D ( 'NONE', #178, #163, #9 ) ;
#165 = ADVANCED_FACE ( 'NONE', ( #55, #207 ), #142, .T. ) ;
#166 = VERTEX_POINT ( 'NONE', #193 ) ;
#167 = FACE_OUTER_BOUND ( 'NONE', #158, .T. ) ;
#168 = APPROVAL_DATE_TIME ( #172, #32 ) ;
#169 = APPLICATION_CONTEXT ( 'configuration controlled 3d designs of mechanical parts and assemblies' ) ;
#170 = PERSON_AND_ORGANIZATION ( #217, #4 ) ;
#171 = CC_DESIGN_PERSON_AND_ORGANIZATION_ASSIGNMENT ( #13, #59, ( #15 ) ) ;
#172 = DATE_AND_TIME ( #201, #147 ) ;
#173 = PERSON_AND_ORGANIZATION_ROLE ( 'classification_officer' ) ;
#174 = ADVANCED_FACE ( 'NONE', ( #121, #119 ), #78, .T. ) ;
#175 = AXIS2_PLACEMENT_3D ( 'NONE', #25, #181, #68 ) ;
#176 = ORIENTED_EDGE ( 'NONE', *, *, #102, .T. ) ;
#177 = EDGE_LOOP ( 'NONE', ( #155 ) ) ;
#178 = CARTESIAN_POINT ( 'NONE',  ( 0.0000000000000000000, 0.0000000000000000000, 0.0000000000000000000 ) ) ;
#179 = APPLICATION_CONTEXT ( 'configuration controlled 3d designs of mechanical parts and assemblies' ) ;
#180 = DIRECTION ( 'NONE',  ( 0.0000000000000000000, -1.000000000000000000, 0.0000000000000000000 ) ) ;
#181 = DIRECTION ( 'NONE',  ( 3.491481338843133355E-15, -1.224646799147353207E-16, 1.000000000000000000 ) ) ;
#182 = CC_DESIGN_DATE_AND_TIME_ASSIGNMENT ( #77, #199, ( #69 ) ) ;
#183 = DIRECTION ( 'NONE',  ( -3.491481338843133355E-15, 1.224646799147353207E-16, -1.000000000000000000 ) ) ;
#184 = CIRCLE ( 'NONE', #96, 1.199999999999999956 ) ;
#185 = LOCAL_TIME ( 11, 22, 51.00000000000000000, #124 ) ;
#186 = CARTESIAN_POINT ( 'NONE',  ( 3.142333204958820020E-14, -1.106812365584726482E-15, 9.000000000000000000 ) ) ;
#187 = CARTESIAN_POINT ( 'NONE',  ( 7.116453572675020672E-16, -0.5600000000000000533, 0.2038233311890758626 ) ) ;
#188 = PRODUCT_DEFINITION_SHAPE ( 'NONE', 'NONE',  #69 ) ;
#189 = COORDINATED_UNIVERSAL_TIME_OFFSET ( 1, 0, .AHEAD. ) ;
#190 =( LENGTH_UNIT ( ) NAMED_UNIT ( * ) SI_UNIT ( .MILLI., .METRE. ) );
#191 = PERSON_AND_ORGANIZATION ( #217, #4 ) ;
#192 = EDGE_LOOP ( 'NONE', ( #18 ) ) ;
#193 = CARTESIAN_POINT ( 'NONE',  ( 3.142333204958820020E-14, 0.5599999999999989431, 9.000000000000000000 ) ) ;
#194 = DIRECTION ( 'NONE',  ( 3.491481338843133355E-15, -1.224646799147353207E-16, 1.000000000000000000 ) ) ;
#195 = DIRECTION ( 'NONE',  ( -3.439160614977206568E-31, -1.000000000000000000, -1.452056481007371939E-16 ) ) ;
#196 = CARTESIAN_POINT ( 'NONE',  ( 1.326762908760390423E-13, -4.653657836759941941E-15, 38.00000000000000000 ) ) ;
#197 = VERTEX_POINT ( 'NONE', #145 ) ;
#198 = LOCAL_TIME ( 11, 22, 51.00000000000000000, #115 ) ;
#199 = DATE_TIME_ROLE ( 'creation_date' ) ;
#200 = COORDINATED_UNIVERSAL_TIME_OFFSET ( 1, 0, .AHEAD. ) ;
#201 = CALENDAR_DATE ( 2021, 28, 10 ) ;
#202 = CC_DESIGN_PERSON_AND_ORGANIZATION_ASSIGNMENT ( #125, #47, ( #15 ) ) ;
#203 = EDGE_LOOP ( 'NONE', ( #204 ) ) ;
#204 = ORIENTED_EDGE ( 'NONE', *, *, #129, .T. ) ;
#205 = CLOSED_SHELL ( 'NONE', ( #109, #63, #31 ) ) ;
#206 = SECURITY_CLASSIFICATION ( '', '', #29 ) ;
#207 = FACE_OUTER_BOUND ( 'NONE', #177, .T. ) ;
#208 = DIRECTION ( 'NONE',  ( 0.0000000000000000000, 1.000000000000000000, 0.0000000000000000000 ) ) ;
#209 = CC_DESIGN_PERSON_AND_ORGANIZATION_ASSIGNMENT ( #127, #58, ( #215 ) ) ;
#210 = CYLINDRICAL_SURFACE ( 'NONE', #164, 0.5600000000000000533 ) ;
#211 = AXIS2_PLACEMENT_3D ( 'NONE', #54, #194, #38 ) ;
#212 = DIRECTION ( 'NONE',  ( 0.0000000000000000000, 1.000000000000000000, 0.0000000000000000000 ) ) ;
#213 = FACE_OUTER_BOUND ( 'NONE', #156, .T. ) ;
#214 = CARTESIAN_POINT ( 'NONE',  ( 0.0000000000000000000, 0.0000000000000000000, 0.0000000000000000000 ) ) ;
#215 = PRODUCT ( '962902', '962902', '', ( #149 ) ) ;
#216 = CALENDAR_DATE ( 2021, 28, 10 ) ;
#217 = PERSON ( 'UNSPECIFIED', 'UNSPECIFIED', 'UNSPECIFIED', ('UNSPECIFIED'), ('UNSPECIFIED'), ('UNSPECIFIED') ) ;
#218 = APPROVAL_DATE_TIME ( #90, #135 ) ;
#219 = CALENDAR_DATE ( 2021, 28, 10 ) ;
#220 = CC_DESIGN_PERSON_AND_ORGANIZATION_ASSIGNMENT ( #60, #14, ( #69 ) ) ;
#221 = AXIS2_PLACEMENT_3D ( 'NONE', #140, #73, #35 ) ;
#222 = DATE_TIME_ROLE ( 'classification_date' ) ;
#223 = ORIENTED_EDGE ( 'NONE', *, *, #2, .T. ) ;
ENDSEC;
END-ISO-10303-21;
