ISO-10303-21;
HEADER;
FILE_DESCRIPTION (( 'STEP AP203' ),
    '1' );
FILE_NAME ('962901.step',
    '2021-10-28T09:22:50',
    ( '' ),
    ( '' ),
    'SwSTEP 2.0',
    'SolidWorks 2019',
    '' );
FILE_SCHEMA (( 'CONFIG_CONTROL_DESIGN' ));
ENDSEC;

DATA;
#1 = APPROVAL_STATUS ( 'not_yet_approved' ) ;
#2 = EDGE_CURVE ( 'NONE', #16, #16, #177, .T. ) ;
#3 = APPLICATION_PROTOCOL_DEFINITION ( 'international standard', 'config_control_design', 1994, #88 ) ;
#4 = CC_DESIGN_PERSON_AND_ORGANIZATION_ASSIGNMENT ( #170, #187, ( #28 ) ) ;
#5 = CONICAL_SURFACE ( 'NONE', #98, 1.199999999999999956, 0.7853981633974453924 ) ;
#6 = ADVANCED_BREP_SHAPE_REPRESENTATION ( '962901', ( #205, #132, #149 ), #135 ) ;
#7 = CIRCLE ( 'NONE', #82, 0.5550000000000000488 ) ;
#8 = CARTESIAN_POINT ( 'NONE',  ( 3.142333204958820020E-14, -1.106812365584726482E-15, 9.000000000000000000 ) ) ;
#9 = CC_DESIGN_DATE_AND_TIME_ASSIGNMENT ( #53, #118, ( #28 ) ) ;
#10 = DIRECTION ( 'NONE',  ( 3.491481338843133355E-15, -1.224646799147353207E-16, 1.000000000000000000 ) ) ;
#11 = FACE_OUTER_BOUND ( 'NONE', #125, .T. ) ;
#12 = FACE_OUTER_BOUND ( 'NONE', #161, .T. ) ;
#13 = CARTESIAN_POINT ( 'NONE',  ( 1.326762908760390423E-13, -4.653657836759941941E-15, 38.00000000000000000 ) ) ;
#14 = AXIS2_PLACEMENT_3D ( 'NONE', #97, #180, #219 ) ;
#15 = CC_DESIGN_SECURITY_CLASSIFICATION ( #28, ( #77 ) ) ;
#16 = VERTEX_POINT ( 'NONE', #31 ) ;
#17 = APPROVAL_ROLE ( '' ) ;
#18 = AXIS2_PLACEMENT_3D ( 'NONE', #199, #10, #50 ) ;
#19 = CALENDAR_DATE ( 2021, 28, 10 ) ;
#20 = APPROVAL_DATE_TIME ( #39, #89 ) ;
#21 = CARTESIAN_POINT ( 'NONE',  ( 0.0000000000000000000, 0.0000000000000000000, 0.0000000000000000000 ) ) ;
#22 = ORGANIZATION ( 'UNSPECIFIED', 'UNSPECIFIED', '' ) ;
#23 = ORIENTED_EDGE ( 'NONE', *, *, #2, .F. ) ;
#24 = EDGE_LOOP ( 'NONE', ( #104 ) ) ;
#25 = DIRECTION ( 'NONE',  ( -3.491481338843133355E-15, 1.224646799147353207E-16, -1.000000000000000000 ) ) ;
#26 = DIRECTION ( 'NONE',  ( 3.491481338843133355E-15, -1.224646799147353207E-16, 1.000000000000000000 ) ) ;
#27 = CC_DESIGN_DATE_AND_TIME_ASSIGNMENT ( #208, #154, ( #133 ) ) ;
#28 = SECURITY_CLASSIFICATION ( '', '', #121 ) ;
#29 = CARTESIAN_POINT ( 'NONE',  ( 1.326762908760390423E-13, -4.653657836759941941E-15, 38.00000000000000000 ) ) ;
#30 = PLANE ( 'NONE',  #18 ) ;
#31 = CARTESIAN_POINT ( 'NONE',  ( 3.142333204958820020E-14, 0.5549999999999989386, 9.000000000000000000 ) ) ;
#32 = ADVANCED_FACE ( 'NONE', ( #142, #178 ), #214, .T. ) ;
#33 = AXIS2_PLACEMENT_3D ( 'NONE', #62, #196, #200 ) ;
#34 = COORDINATED_UNIVERSAL_TIME_OFFSET ( 1, 0, .AHEAD. ) ;
#35 = PRODUCT_RELATED_PRODUCT_CATEGORY ( 'detail', '', ( #207 ) ) ;
#36 =( NAMED_UNIT ( * ) SI_UNIT ( $, .STERADIAN. ) SOLID_ANGLE_UNIT ( ) );
#37 = APPROVAL_STATUS ( 'not_yet_approved' ) ;
#38 = ADVANCED_FACE ( 'NONE', ( #145 ), #49, .F. ) ;
#39 = DATE_AND_TIME ( #184, #201 ) ;
#40 = CARTESIAN_POINT ( 'NONE',  ( 7.052913808633278131E-16, -0.5550000000000000488, 0.2020034800177447909 ) ) ;
#41 = LOCAL_TIME ( 11, 22, 50.00000000000000000, #100 ) ;
#42 = ORIENTED_EDGE ( 'NONE', *, *, #175, .T. ) ;
#43 = EDGE_LOOP ( 'NONE', ( #76 ) ) ;
#44 = APPROVAL_STATUS ( 'not_yet_approved' ) ;
#45 = EDGE_LOOP ( 'NONE', ( #192 ) ) ;
#46 = CC_DESIGN_PERSON_AND_ORGANIZATION_ASSIGNMENT ( #69, #55, ( #77 ) ) ;
#47 = CARTESIAN_POINT ( 'NONE',  ( 3.142333204958820020E-14, -1.106812365584726482E-15, 9.000000000000000000 ) ) ;
#48 = CARTESIAN_POINT ( 'NONE',  ( 7.052913808633280103E-16, -2.473829152203575149E-17, 0.2020034800177448742 ) ) ;
#49 = PLANE ( 'NONE',  #14 ) ;
#50 = DIRECTION ( 'NONE',  ( -4.275831445896958607E-31, -1.000000000000000000, -1.224646799147353207E-16 ) ) ;
#51 = EDGE_CURVE ( 'NONE', #112, #112, #57, .T. ) ;
#52 = DESIGN_CONTEXT ( 'detailed design', #88, 'design' ) ;
#53 = DATE_AND_TIME ( #202, #216 ) ;
#54 = CC_DESIGN_APPROVAL ( #146, ( #133 ) ) ;
#55 = PERSON_AND_ORGANIZATION_ROLE ( 'design_supplier' ) ;
#56 = SHAPE_DEFINITION_REPRESENTATION ( #84, #6 ) ;
#57 = CIRCLE ( 'NONE', #194, 1.199999999999999956 ) ;
#58 = ORIENTED_EDGE ( 'NONE', *, *, #2, .T. ) ;
#59 = CIRCLE ( 'NONE', #126, 0.5550000000000000488 ) ;
#60 = DIRECTION ( 'NONE',  ( 0.0000000000000000000, 1.000000000000000000, 0.0000000000000000000 ) ) ;
#61 = VERTEX_POINT ( 'NONE', #129 ) ;
#62 = CARTESIAN_POINT ( 'NONE',  ( 1.316288464743861212E-13, -4.616918432785521081E-15, 37.69999999999999574 ) ) ;
#63 = FACE_OUTER_BOUND ( 'NONE', #213, .T. ) ;
#64 = CARTESIAN_POINT ( 'NONE',  ( 1.906192921252232855E-15, -6.686024735685322183E-17, 0.5459553513993090634 ) ) ;
#65 = PERSON_AND_ORGANIZATION ( #206, #22 ) ;
#66 = CC_DESIGN_PERSON_AND_ORGANIZATION_ASSIGNMENT ( #65, #155, ( #207 ) ) ;
#67 = PERSON_AND_ORGANIZATION_ROLE ( 'creator' ) ;
#68 =( NAMED_UNIT ( * ) PLANE_ANGLE_UNIT ( ) SI_UNIT ( $, .RADIAN. ) );
#69 = PERSON_AND_ORGANIZATION ( #206, #22 ) ;
#70 = AXIS2_PLACEMENT_3D ( 'NONE', #164, #94, #116 ) ;
#71 = APPROVAL_PERSON_ORGANIZATION ( #171, #92, #108 ) ;
#72 = CONICAL_SURFACE ( 'NONE', #90, 1.499999999999995559, 1.221730476396026388 ) ;
#73 = ADVANCED_FACE ( 'NONE', ( #12 ), #217, .F. ) ;
#74 = EDGE_CURVE ( 'NONE', #79, #79, #139, .T. ) ;
#75 = DIRECTION ( 'NONE',  ( 0.0000000000000000000, 1.000000000000000000, 0.0000000000000000000 ) ) ;
#76 = ORIENTED_EDGE ( 'NONE', *, *, #74, .T. ) ;
#77 = PRODUCT_DEFINITION_FORMATION_WITH_SPECIFIED_SOURCE ( 'ANY', '', #207, .NOT_KNOWN. ) ;
#78 = CARTESIAN_POINT ( 'NONE',  ( 0.0000000000000000000, 0.0000000000000000000, 0.0000000000000000000 ) ) ;
#79 = VERTEX_POINT ( 'NONE', #147 ) ;
#80 = DIRECTION ( 'NONE',  ( -3.491481338843133355E-15, 1.224646799147353207E-16, -1.000000000000000000 ) ) ;
#81 = CARTESIAN_POINT ( 'NONE',  ( 4.373704658356605837E-14, -1.540533763779532705E-15, 12.52678801315257395 ) ) ;
#82 = AXIS2_PLACEMENT_3D ( 'NONE', #47, #183, #165 ) ;
#83 = DIRECTION ( 'NONE',  ( -5.135813185032644414E-31, -1.000000000000000000, -1.445602896647343601E-16 ) ) ;
#84 = PRODUCT_DEFINITION_SHAPE ( 'NONE', 'NONE',  #133 ) ;
#85 = PERSON_AND_ORGANIZATION ( #206, #22 ) ;
#86 = COORDINATED_UNIVERSAL_TIME_OFFSET ( 1, 0, .AHEAD. ) ;
#87 = APPLICATION_PROTOCOL_DEFINITION ( 'international standard', 'config_control_design', 1994, #167 ) ;
#88 = APPLICATION_CONTEXT ( 'configuration controlled 3d designs of mechanical parts and assemblies' ) ;
#89 = APPROVAL ( #1, 'UNSPECIFIED' ) ;
#90 = AXIS2_PLACEMENT_3D ( 'NONE', #64, #26, #83 ) ;
#91 = FACE_OUTER_BOUND ( 'NONE', #143, .T. ) ;
#92 = APPROVAL ( #44, 'UNSPECIFIED' ) ;
#93 = CC_DESIGN_APPROVAL ( #89, ( #77 ) ) ;
#94 = DIRECTION ( 'NONE',  ( -3.491481338843133355E-15, 1.229791517316362731E-16, -1.000000000000000000 ) ) ;
#95 = DIRECTION ( 'NONE',  ( -4.275831445896958607E-31, -1.000000000000000000, -1.224646799147353207E-16 ) ) ;
#96 = DIRECTION ( 'NONE',  ( 3.491481338843133355E-15, -1.229791517316362731E-16, 1.000000000000000000 ) ) ;
#97 = CARTESIAN_POINT ( 'NONE',  ( 1.326762908760390423E-13, 8.998558695971077224E-33, 38.00000000000000000 ) ) ;
#98 = AXIS2_PLACEMENT_3D ( 'NONE', #13, #25, #60 ) ;
#99 = PERSON_AND_ORGANIZATION ( #206, #22 ) ;
#100 = COORDINATED_UNIVERSAL_TIME_OFFSET ( 1, 0, .AHEAD. ) ;
#101 = MECHANICAL_CONTEXT ( 'NONE', #167, 'mechanical' ) ;
#102 = COORDINATED_UNIVERSAL_TIME_OFFSET ( 1, 0, .AHEAD. ) ;
#103 = CALENDAR_DATE ( 2021, 28, 10 ) ;
#104 = ORIENTED_EDGE ( 'NONE', *, *, #212, .F. ) ;
#105 = CC_DESIGN_PERSON_AND_ORGANIZATION_ASSIGNMENT ( #117, #134, ( #133 ) ) ;
#106 = EDGE_LOOP ( 'NONE', ( #23 ) ) ;
#107 = ORIENTED_EDGE ( 'NONE', *, *, #74, .F. ) ;
#108 = APPROVAL_ROLE ( '' ) ;
#109 = DIRECTION ( 'NONE',  ( -3.491481338843133355E-15, 1.229791517316362731E-16, -1.000000000000000000 ) ) ;
#110 = ADVANCED_FACE ( 'NONE', ( #218, #11 ), #123, .T. ) ;
#111 = FACE_OUTER_BOUND ( 'NONE', #174, .T. ) ;
#112 = VERTEX_POINT ( 'NONE', #152 ) ;
#113 = CLOSED_SHELL ( 'NONE', ( #188, #153, #38, #110, #73 ) ) ;
#114 = VERTEX_POINT ( 'NONE', #40 ) ;
#115 = DIRECTION ( 'NONE',  ( 4.275831445896958607E-31, 1.000000000000000000, 1.224646799147353207E-16 ) ) ;
#116 = DIRECTION ( 'NONE',  ( 0.0000000000000000000, 1.000000000000000000, 0.0000000000000000000 ) ) ;
#117 = PERSON_AND_ORGANIZATION ( #206, #22 ) ;
#118 = DATE_TIME_ROLE ( 'classification_date' ) ;
#119 = CARTESIAN_POINT ( 'NONE',  ( 3.142333204958820020E-14, 0.5549999999999989386, 9.000000000000000000 ) ) ;
#120 = CALENDAR_DATE ( 2021, 28, 10 ) ;
#121 = SECURITY_CLASSIFICATION_LEVEL ( 'unclassified' ) ;
#122 = DATE_AND_TIME ( #103, #156 ) ;
#123 = CONICAL_SURFACE ( 'NONE', #160, 1.499999999999998668, 0.2617993877991501295 ) ;
#124 = ORIENTED_EDGE ( 'NONE', *, *, #162, .T. ) ;
#125 = EDGE_LOOP ( 'NONE', ( #124 ) ) ;
#126 = AXIS2_PLACEMENT_3D ( 'NONE', #48, #80, #128 ) ;
#127 = CLOSED_SHELL ( 'NONE', ( #198, #32, #137 ) ) ;
#128 = DIRECTION ( 'NONE',  ( -3.470144043940965363E-31, -1.000000000000000000, -1.465138070926357223E-16 ) ) ;
#129 = CARTESIAN_POINT ( 'NONE',  ( 4.373704658356605837E-14, 1.499999999999997113, 12.52678801315257395 ) ) ;
#130 = CYLINDRICAL_SURFACE ( 'NONE', #144, 1.499999999999998224 ) ;
#131 = DIRECTION ( 'NONE',  ( 0.0000000000000000000, 1.000000000000000000, 0.0000000000000000000 ) ) ;
#132 = MANIFOLD_SOLID_BREP ( 'Corps-Déplacer/Copier1[2]', #127 ) ;
#133 = PRODUCT_DEFINITION ( 'UNKNOWN', '', #77, #52 ) ;
#134 = PERSON_AND_ORGANIZATION_ROLE ( 'creator' ) ;
#135 =( GEOMETRIC_REPRESENTATION_CONTEXT ( 3 ) GLOBAL_UNCERTAINTY_ASSIGNED_CONTEXT ( ( #221 ) ) GLOBAL_UNIT_ASSIGNED_CONTEXT ( ( #138, #68, #36 ) ) REPRESENTATION_CONTEXT ( 'NONE', 'WORKASPACE' ) );
#136 = PERSON_AND_ORGANIZATION ( #206, #22 ) ;
#137 = ADVANCED_FACE ( 'NONE', ( #91 ), #72, .T. ) ;
#138 =( LENGTH_UNIT ( ) NAMED_UNIT ( * ) SI_UNIT ( .MILLI., .METRE. ) );
#139 = CIRCLE ( 'NONE', #33, 1.499999999999999778 ) ;
#140 = APPROVAL_DATE_TIME ( #204, #146 ) ;
#141 = ORIENTED_EDGE ( 'NONE', *, *, #51, .T. ) ;
#142 = FACE_OUTER_BOUND ( 'NONE', #45, .T. ) ;
#143 = EDGE_LOOP ( 'NONE', ( #42 ) ) ;
#144 = AXIS2_PLACEMENT_3D ( 'NONE', #197, #148, #115 ) ;
#145 = FACE_OUTER_BOUND ( 'NONE', #163, .T. ) ;
#146 = APPROVAL ( #37, 'UNSPECIFIED' ) ;
#147 = CARTESIAN_POINT ( 'NONE',  ( 1.316288464743861212E-13, 1.499999999999995337, 37.69999999999999574 ) ) ;
#148 = DIRECTION ( 'NONE',  ( -3.491481338843133355E-15, 1.224646799147353207E-16, -1.000000000000000000 ) ) ;
#149 = AXIS2_PLACEMENT_3D ( 'NONE', #21, #157, #158 ) ;
#150 = CC_DESIGN_APPROVAL ( #92, ( #28 ) ) ;
#151 = CARTESIAN_POINT ( 'NONE',  ( 3.142333204958820020E-14, 1.124819836996388964E-32, 9.000000000000000000 ) ) ;
#152 = CARTESIAN_POINT ( 'NONE',  ( 1.326762908760390423E-13, 1.199999999999995293, 38.00000000000000000 ) ) ;
#153 = ADVANCED_FACE ( 'NONE', ( #111, #179 ), #5, .T. ) ;
#154 = DATE_TIME_ROLE ( 'creation_date' ) ;
#155 = PERSON_AND_ORGANIZATION_ROLE ( 'design_owner' ) ;
#156 = LOCAL_TIME ( 11, 22, 50.00000000000000000, #209 ) ;
#157 = DIRECTION ( 'NONE',  ( 0.0000000000000000000, 0.0000000000000000000, 1.000000000000000000 ) ) ;
#158 = DIRECTION ( 'NONE',  ( 1.000000000000000000, 0.0000000000000000000, 0.0000000000000000000 ) ) ;
#159 = LOCAL_TIME ( 11, 22, 50.00000000000000000, #86 ) ;
#160 = AXIS2_PLACEMENT_3D ( 'NONE', #81, #96, #169 ) ;
#161 = EDGE_LOOP ( 'NONE', ( #58 ) ) ;
#162 = EDGE_CURVE ( 'NONE', #61, #61, #220, .T. ) ;
#163 = EDGE_LOOP ( 'NONE', ( #215 ) ) ;
#164 = CARTESIAN_POINT ( 'NONE',  ( 4.373704658356605837E-14, -1.540533763779532705E-15, 12.52678801315257395 ) ) ;
#165 = DIRECTION ( 'NONE',  ( 0.0000000000000000000, 1.000000000000000000, 0.0000000000000000000 ) ) ;
#166 = DIRECTION ( 'NONE',  ( -3.491481338843133355E-15, 1.224646799147353207E-16, -1.000000000000000000 ) ) ;
#167 = APPLICATION_CONTEXT ( 'configuration controlled 3d designs of mechanical parts and assemblies' ) ;
#168 = FACE_OUTER_BOUND ( 'NONE', #43, .T. ) ;
#169 = DIRECTION ( 'NONE',  ( 0.0000000000000000000, -1.000000000000000000, 0.0000000000000000000 ) ) ;
#170 = PERSON_AND_ORGANIZATION ( #206, #22 ) ;
#171 = PERSON_AND_ORGANIZATION ( #206, #22 ) ;
#172 = APPROVAL_PERSON_ORGANIZATION ( #136, #146, #17 ) ;
#173 = EDGE_LOOP ( 'NONE', ( #211 ) ) ;
#174 = EDGE_LOOP ( 'NONE', ( #107 ) ) ;
#175 = EDGE_CURVE ( 'NONE', #114, #114, #59, .T. ) ;
#176 = ORIENTED_EDGE ( 'NONE', *, *, #162, .F. ) ;
#177 = CIRCLE ( 'NONE', #193, 0.5550000000000000488 ) ;
#178 = FACE_OUTER_BOUND ( 'NONE', #173, .T. ) ;
#179 = FACE_BOUND ( 'NONE', #191, .T. ) ;
#180 = DIRECTION ( 'NONE',  ( -3.491481338843133355E-15, 1.224646799147353207E-16, -1.000000000000000000 ) ) ;
#181 = DIRECTION ( 'NONE',  ( -3.491481338843133355E-15, 1.229791517316362731E-16, -1.000000000000000000 ) ) ;
#182 = DIRECTION ( 'NONE',  ( 3.491481338843133355E-15, -1.224646799147353207E-16, 1.000000000000000000 ) ) ;
#183 = DIRECTION ( 'NONE',  ( -3.491481338843133355E-15, 1.229791517316362731E-16, -1.000000000000000000 ) ) ;
#184 = CALENDAR_DATE ( 2021, 28, 10 ) ;
#185 = APPROVAL_ROLE ( '' ) ;
#186 = AXIS2_PLACEMENT_3D ( 'NONE', #151, #182, #95 ) ;
#187 = PERSON_AND_ORGANIZATION_ROLE ( 'classification_officer' ) ;
#188 = ADVANCED_FACE ( 'NONE', ( #63, #168 ), #130, .T. ) ;
#189 = APPROVAL_DATE_TIME ( #122, #92 ) ;
#190 = APPROVAL_PERSON_ORGANIZATION ( #85, #89, #185 ) ;
#191 = EDGE_LOOP ( 'NONE', ( #141 ) ) ;
#192 = ORIENTED_EDGE ( 'NONE', *, *, #212, .T. ) ;
#193 = AXIS2_PLACEMENT_3D ( 'NONE', #8, #109, #75 ) ;
#194 = AXIS2_PLACEMENT_3D ( 'NONE', #29, #166, #131 ) ;
#195 = FACE_OUTER_BOUND ( 'NONE', #24, .T. ) ;
#196 = DIRECTION ( 'NONE',  ( -3.491481338843133355E-15, 1.224646799147353207E-16, -1.000000000000000000 ) ) ;
#197 = CARTESIAN_POINT ( 'NONE',  ( 0.0000000000000000000, 0.0000000000000000000, 0.0000000000000000000 ) ) ;
#198 = ADVANCED_FACE ( 'NONE', ( #195 ), #30, .T. ) ;
#199 = CARTESIAN_POINT ( 'NONE',  ( 3.142333204958820020E-14, 1.124819836996388964E-32, 9.000000000000000000 ) ) ;
#200 = DIRECTION ( 'NONE',  ( 0.0000000000000000000, 1.000000000000000000, 0.0000000000000000000 ) ) ;
#201 = LOCAL_TIME ( 11, 22, 50.00000000000000000, #34 ) ;
#202 = CALENDAR_DATE ( 2021, 28, 10 ) ;
#203 = VERTEX_POINT ( 'NONE', #119 ) ;
#204 = DATE_AND_TIME ( #19, #41 ) ;
#205 = MANIFOLD_SOLID_BREP ( 'Corps-Déplacer/Copier1[1]', #113 ) ;
#206 = PERSON ( 'UNSPECIFIED', 'UNSPECIFIED', 'UNSPECIFIED', ('UNSPECIFIED'), ('UNSPECIFIED'), ('UNSPECIFIED') ) ;
#207 = PRODUCT ( '962901', '962901', '', ( #101 ) ) ;
#208 = DATE_AND_TIME ( #120, #159 ) ;
#209 = COORDINATED_UNIVERSAL_TIME_OFFSET ( 1, 0, .AHEAD. ) ;
#210 = CC_DESIGN_PERSON_AND_ORGANIZATION_ASSIGNMENT ( #99, #67, ( #77 ) ) ;
#211 = ORIENTED_EDGE ( 'NONE', *, *, #175, .F. ) ;
#212 = EDGE_CURVE ( 'NONE', #203, #203, #7, .T. ) ;
#213 = EDGE_LOOP ( 'NONE', ( #176 ) ) ;
#214 = CYLINDRICAL_SURFACE ( 'NONE', #223, 0.5550000000000000488 ) ;
#215 = ORIENTED_EDGE ( 'NONE', *, *, #51, .F. ) ;
#216 = LOCAL_TIME ( 11, 22, 50.00000000000000000, #102 ) ;
#217 = PLANE ( 'NONE',  #186 ) ;
#218 = FACE_BOUND ( 'NONE', #106, .T. ) ;
#219 = DIRECTION ( 'NONE',  ( 4.275831445896958607E-31, 1.000000000000000000, 1.224646799147353207E-16 ) ) ;
#220 = CIRCLE ( 'NONE', #70, 1.499999999999998668 ) ;
#221 = UNCERTAINTY_MEASURE_WITH_UNIT (LENGTH_MEASURE( 1.000000000000000082E-05 ), #138, 'distance_accuracy_value', 'NONE');
#222 = DIRECTION ( 'NONE',  ( 4.293794133377662246E-31, 1.000000000000000000, 1.229791517316362731E-16 ) ) ;
#223 = AXIS2_PLACEMENT_3D ( 'NONE', #78, #181, #222 ) ;
ENDSEC;
END-ISO-10303-21;
