ISO-10303-21;
HEADER;
FILE_DESCRIPTION (( 'STEP AP203' ),
    '1' );
FILE_NAME ('962890.step',
    '2021-10-28T09:22:49',
    ( '' ),
    ( '' ),
    'SwSTEP 2.0',
    'SolidWorks 2019',
    '' );
FILE_SCHEMA (( 'CONFIG_CONTROL_DESIGN' ));
ENDSEC;

DATA;
#1 = APPROVAL_STATUS ( 'not_yet_approved' ) ;
#2 = ADVANCED_FACE ( 'NONE', ( #51 ), #66, .F. ) ;
#3 = DATE_AND_TIME ( #24, #103 ) ;
#4 = CONICAL_SURFACE ( 'NONE', #58, 1.199999999999999956, 0.7853981633974453924 ) ;
#5 = EDGE_LOOP ( 'NONE', ( #68 ) ) ;
#6 = CIRCLE ( 'NONE', #47, 1.499999999999999778 ) ;
#7 = VERTEX_POINT ( 'NONE', #56 ) ;
#8 = DIRECTION ( 'NONE',  ( -3.491481338843133355E-15, 1.224646799147353207E-16, -1.000000000000000000 ) ) ;
#9 = CARTESIAN_POINT ( 'NONE',  ( 0.0000000000000000000, 0.0000000000000000000, 0.0000000000000000000 ) ) ;
#10 = FACE_OUTER_BOUND ( 'NONE', #18, .T. ) ;
#11 = PERSON_AND_ORGANIZATION ( #101, #176 ) ;
#12 = CALENDAR_DATE ( 2021, 28, 10 ) ;
#13 = EDGE_CURVE ( 'NONE', #143, #143, #102, .T. ) ;
#14 = APPROVAL ( #117, 'UNSPECIFIED' ) ;
#15 = EDGE_LOOP ( 'NONE', ( #17 ) ) ;
#16 =( NAMED_UNIT ( * ) PLANE_ANGLE_UNIT ( ) SI_UNIT ( $, .RADIAN. ) );
#17 = ORIENTED_EDGE ( 'NONE', *, *, #174, .T. ) ;
#18 = EDGE_LOOP ( 'NONE', ( #119 ) ) ;
#19 = CARTESIAN_POINT ( 'NONE',  ( 4.380219851231726664E-14, -1.542828585992203731E-15, 12.54544826719041772 ) ) ;
#20 = CARTESIAN_POINT ( 'NONE',  ( 1.326762908760390423E-13, 8.998558695971077224E-33, 38.00000000000000000 ) ) ;
#21 = DIRECTION ( 'NONE',  ( -3.501690807976792142E-31, -1.000000000000000000, -9.856383386231857595E-17 ) ) ;
#22 = FACE_OUTER_BOUND ( 'NONE', #156, .T. ) ;
#23 = DIRECTION ( 'NONE',  ( -3.491481338843133355E-15, 1.224646799147353207E-16, -1.000000000000000000 ) ) ;
#24 = CALENDAR_DATE ( 2021, 28, 10 ) ;
#25 = AXIS2_PLACEMENT_3D ( 'NONE', #92, #164, #95 ) ;
#26 = APPROVAL_DATE_TIME ( #50, #14 ) ;
#27 = ADVANCED_FACE ( 'NONE', ( #179 ), #128, .F. ) ;
#28 = CLOSED_SHELL ( 'NONE', ( #213, #194, #80 ) ) ;
#29 = ADVANCED_FACE ( 'NONE', ( #193, #22 ), #127, .T. ) ;
#30 = DIRECTION ( 'NONE',  ( 3.491481338843133355E-15, -1.224646799147353207E-16, 1.000000000000000000 ) ) ;
#31 = PERSON_AND_ORGANIZATION ( #101, #176 ) ;
#32 = CALENDAR_DATE ( 2021, 28, 10 ) ;
#33 = LOCAL_TIME ( 11, 22, 49.00000000000000000, #35 ) ;
#34 = AXIS2_PLACEMENT_3D ( 'NONE', #20, #23, #72 ) ;
#35 = COORDINATED_UNIVERSAL_TIME_OFFSET ( 1, 0, .AHEAD. ) ;
#36 = ORIENTED_EDGE ( 'NONE', *, *, #93, .T. ) ;
#37 = DIRECTION ( 'NONE',  ( 0.0000000000000000000, 1.000000000000000000, 0.0000000000000000000 ) ) ;
#38 = EDGE_CURVE ( 'NONE', #208, #208, #43, .T. ) ;
#39 = FACE_OUTER_BOUND ( 'NONE', #106, .T. ) ;
#40 = DIRECTION ( 'NONE',  ( 0.0000000000000000000, 1.000000000000000000, 0.0000000000000000000 ) ) ;
#41 = DIRECTION ( 'NONE',  ( -5.135813185032644414E-31, -1.000000000000000000, -1.445602896647343601E-16 ) ) ;
#42 = CARTESIAN_POINT ( 'NONE',  ( 1.316288464743861212E-13, -4.616918432785521081E-15, 37.69999999999999574 ) ) ;
#43 = CIRCLE ( 'NONE', #196, 1.499999999999998668 ) ;
#44 = DATE_TIME_ROLE ( 'creation_date' ) ;
#45 = DESIGN_CONTEXT ( 'detailed design', #187, 'design' ) ;
#46 = COORDINATED_UNIVERSAL_TIME_OFFSET ( 1, 0, .AHEAD. ) ;
#47 = AXIS2_PLACEMENT_3D ( 'NONE', #42, #94, #40 ) ;
#48 = ORIENTED_EDGE ( 'NONE', *, *, #13, .T. ) ;
#49 = AXIS2_PLACEMENT_3D ( 'NONE', #9, #75, #61 ) ;
#50 = DATE_AND_TIME ( #183, #161 ) ;
#51 = FACE_OUTER_BOUND ( 'NONE', #160, .T. ) ;
#52 = ORIENTED_EDGE ( 'NONE', *, *, #38, .T. ) ;
#53 = DIRECTION ( 'NONE',  ( 0.0000000000000000000, 1.000000000000000000, 0.0000000000000000000 ) ) ;
#54 = CC_DESIGN_DATE_AND_TIME_ASSIGNMENT ( #99, #44, ( #96 ) ) ;
#55 = APPROVAL_ROLE ( '' ) ;
#56 = CARTESIAN_POINT ( 'NONE',  ( 1.326762908760390423E-13, 1.199999999999995293, 38.00000000000000000 ) ) ;
#57 = APPROVAL_DATE_TIME ( #67, #88 ) ;
#58 = AXIS2_PLACEMENT_3D ( 'NONE', #165, #91, #62 ) ;
#59 = CARTESIAN_POINT ( 'NONE',  ( 3.142333204958820020E-14, -1.106812365584726482E-15, 9.000000000000000000 ) ) ;
#60 = ADVANCED_BREP_SHAPE_REPRESENTATION ( '962890', ( #139, #137, #85 ), #89 ) ;
#61 = DIRECTION ( 'NONE',  ( 4.293794133377662246E-31, 1.000000000000000000, 1.229791517316362731E-16 ) ) ;
#62 = DIRECTION ( 'NONE',  ( 0.0000000000000000000, 1.000000000000000000, 0.0000000000000000000 ) ) ;
#63 = CONICAL_SURFACE ( 'NONE', #202, 1.499999999999995559, 1.221730476396026388 ) ;
#64 = APPLICATION_PROTOCOL_DEFINITION ( 'international standard', 'config_control_design', 1994, #132 ) ;
#65 = LOCAL_TIME ( 11, 22, 49.00000000000000000, #46 ) ;
#66 = PLANE ( 'NONE',  #217 ) ;
#67 = DATE_AND_TIME ( #210, #33 ) ;
#68 = ORIENTED_EDGE ( 'NONE', *, *, #13, .F. ) ;
#69 = ORIENTED_EDGE ( 'NONE', *, *, #111, .F. ) ;
#70 = FACE_OUTER_BOUND ( 'NONE', #207, .T. ) ;
#71 = DIRECTION ( 'NONE',  ( -3.491481338843133355E-15, 1.229791517316362731E-16, -1.000000000000000000 ) ) ;
#72 = DIRECTION ( 'NONE',  ( 4.275831445896958607E-31, 1.000000000000000000, 1.224646799147353207E-16 ) ) ;
#73 = CC_DESIGN_APPROVAL ( #14, ( #181 ) ) ;
#74 = CIRCLE ( 'NONE', #108, 0.5500000000000000444 ) ;
#75 = DIRECTION ( 'NONE',  ( -3.491481338843133355E-15, 1.229791517316362731E-16, -1.000000000000000000 ) ) ;
#76 = PLANE ( 'NONE',  #172 ) ;
#77 = DATE_AND_TIME ( #32, #65 ) ;
#78 = SECURITY_CLASSIFICATION_LEVEL ( 'unclassified' ) ;
#79 = AXIS2_PLACEMENT_3D ( 'NONE', #59, #112, #147 ) ;
#80 = ADVANCED_FACE ( 'NONE', ( #107 ), #63, .T. ) ;
#81 = DIRECTION ( 'NONE',  ( 0.0000000000000000000, 0.0000000000000000000, 1.000000000000000000 ) ) ;
#82 =( NAMED_UNIT ( * ) SI_UNIT ( $, .STERADIAN. ) SOLID_ANGLE_UNIT ( ) );
#83 = ORIENTED_EDGE ( 'NONE', *, *, #111, .T. ) ;
#84 = CC_DESIGN_PERSON_AND_ORGANIZATION_ASSIGNMENT ( #182, #120, ( #181 ) ) ;
#85 = AXIS2_PLACEMENT_3D ( 'NONE', #168, #81, #221 ) ;
#86 = EDGE_LOOP ( 'NONE', ( #36 ) ) ;
#87 = EDGE_LOOP ( 'NONE', ( #83 ) ) ;
#88 = APPROVAL ( #190, 'UNSPECIFIED' ) ;
#89 =( GEOMETRIC_REPRESENTATION_CONTEXT ( 3 ) GLOBAL_UNCERTAINTY_ASSIGNED_CONTEXT ( ( #220 ) ) GLOBAL_UNIT_ASSIGNED_CONTEXT ( ( #131, #16, #82 ) ) REPRESENTATION_CONTEXT ( 'NONE', 'WORKASPACE' ) );
#90 = FACE_OUTER_BOUND ( 'NONE', #200, .T. ) ;
#91 = DIRECTION ( 'NONE',  ( -3.491481338843133355E-15, 1.224646799147353207E-16, -1.000000000000000000 ) ) ;
#92 = CARTESIAN_POINT ( 'NONE',  ( 4.380219851231726664E-14, -1.542828585992203731E-15, 12.54544826719041772 ) ) ;
#93 = EDGE_CURVE ( 'NONE', #189, #189, #212, .T. ) ;
#94 = DIRECTION ( 'NONE',  ( -3.491481338843133355E-15, 1.224646799147353207E-16, -1.000000000000000000 ) ) ;
#95 = DIRECTION ( 'NONE',  ( 0.0000000000000000000, -1.000000000000000000, 0.0000000000000000000 ) ) ;
#96 = PRODUCT_DEFINITION ( 'UNKNOWN', '', #181, #45 ) ;
#97 = DATE_TIME_ROLE ( 'classification_date' ) ;
#98 = AXIS2_PLACEMENT_3D ( 'NONE', #205, #71, #53 ) ;
#99 = DATE_AND_TIME ( #12, #157 ) ;
#100 = PRODUCT ( '962890', '962890', '', ( #151 ) ) ;
#101 = PERSON ( 'UNSPECIFIED', 'UNSPECIFIED', 'UNSPECIFIED', ('UNSPECIFIED'), ('UNSPECIFIED'), ('UNSPECIFIED') ) ;
#102 = CIRCLE ( 'NONE', #98, 0.5500000000000000444 ) ;
#103 = LOCAL_TIME ( 11, 22, 49.00000000000000000, #155 ) ;
#104 = PERSON_AND_ORGANIZATION_ROLE ( 'classification_officer' ) ;
#105 = APPROVAL_DATE_TIME ( #77, #204 ) ;
#106 = EDGE_LOOP ( 'NONE', ( #52 ) ) ;
#107 = FACE_OUTER_BOUND ( 'NONE', #15, .T. ) ;
#108 = AXIS2_PLACEMENT_3D ( 'NONE', #177, #214, #21 ) ;
#109 = CARTESIAN_POINT ( 'NONE',  ( 1.906192921252232855E-15, -6.686024735685322183E-17, 0.5459553513993090634 ) ) ;
#110 = FACE_BOUND ( 'NONE', #87, .T. ) ;
#111 = EDGE_CURVE ( 'NONE', #7, #7, #118, .T. ) ;
#112 = DIRECTION ( 'NONE',  ( -3.491481338843133355E-15, 1.229791517316362731E-16, -1.000000000000000000 ) ) ;
#113 = AXIS2_PLACEMENT_3D ( 'NONE', #178, #8, #114 ) ;
#114 = DIRECTION ( 'NONE',  ( 0.0000000000000000000, 1.000000000000000000, 0.0000000000000000000 ) ) ;
#115 = PERSON_AND_ORGANIZATION ( #101, #176 ) ;
#116 = PERSON_AND_ORGANIZATION ( #101, #176 ) ;
#117 = APPROVAL_STATUS ( 'not_yet_approved' ) ;
#118 = CIRCLE ( 'NONE', #113, 1.199999999999999956 ) ;
#119 = ORIENTED_EDGE ( 'NONE', *, *, #93, .F. ) ;
#120 = PERSON_AND_ORGANIZATION_ROLE ( 'design_supplier' ) ;
#121 = PERSON_AND_ORGANIZATION_ROLE ( 'design_owner' ) ;
#122 = CARTESIAN_POINT ( 'NONE',  ( 4.380219851231726664E-14, 1.499999999999997113, 12.54544826719041772 ) ) ;
#123 = CARTESIAN_POINT ( 'NONE',  ( 3.142333204958820020E-14, 0.5499999999999989342, 9.000000000000000000 ) ) ;
#124 = SHAPE_DEFINITION_REPRESENTATION ( #222, #60 ) ;
#125 = CC_DESIGN_APPROVAL ( #204, ( #96 ) ) ;
#126 = CC_DESIGN_PERSON_AND_ORGANIZATION_ASSIGNMENT ( #219, #201, ( #96 ) ) ;
#127 = CYLINDRICAL_SURFACE ( 'NONE', #138, 1.499999999999998224 ) ;
#128 = PLANE ( 'NONE',  #34 ) ;
#129 = DIRECTION ( 'NONE',  ( -4.275831445896958607E-31, -1.000000000000000000, -1.224646799147353207E-16 ) ) ;
#130 = CC_DESIGN_DATE_AND_TIME_ASSIGNMENT ( #3, #97, ( #218 ) ) ;
#131 =( LENGTH_UNIT ( ) NAMED_UNIT ( * ) SI_UNIT ( .MILLI., .METRE. ) );
#132 = APPLICATION_CONTEXT ( 'configuration controlled 3d designs of mechanical parts and assemblies' ) ;
#133 = VERTEX_POINT ( 'NONE', #150 ) ;
#134 = PERSON_AND_ORGANIZATION ( #101, #176 ) ;
#135 = PRODUCT_RELATED_PRODUCT_CATEGORY ( 'detail', '', ( #100 ) ) ;
#136 = EDGE_CURVE ( 'NONE', #191, #191, #6, .T. ) ;
#137 = MANIFOLD_SOLID_BREP ( 'Corps-Déplacer/Copier1[2]', #28 ) ;
#138 = AXIS2_PLACEMENT_3D ( 'NONE', #211, #146, #163 ) ;
#139 = MANIFOLD_SOLID_BREP ( 'Corps-Déplacer/Copier1[1]', #141 ) ;
#140 = EDGE_LOOP ( 'NONE', ( #186 ) ) ;
#141 = CLOSED_SHELL ( 'NONE', ( #29, #152, #27, #188, #2 ) ) ;
#142 = CC_DESIGN_SECURITY_CLASSIFICATION ( #218, ( #181 ) ) ;
#143 = VERTEX_POINT ( 'NONE', #123 ) ;
#144 = DIRECTION ( 'NONE',  ( -3.491481338843133355E-15, 1.229791517316362731E-16, -1.000000000000000000 ) ) ;
#145 = CC_DESIGN_PERSON_AND_ORGANIZATION_ASSIGNMENT ( #11, #121, ( #100 ) ) ;
#146 = DIRECTION ( 'NONE',  ( -3.491481338843133355E-15, 1.224646799147353207E-16, -1.000000000000000000 ) ) ;
#147 = DIRECTION ( 'NONE',  ( 0.0000000000000000000, 1.000000000000000000, 0.0000000000000000000 ) ) ;
#148 = CARTESIAN_POINT ( 'NONE',  ( 3.142333204958820020E-14, 1.124819836996388964E-32, 9.000000000000000000 ) ) ;
#149 = COORDINATED_UNIVERSAL_TIME_OFFSET ( 1, 0, .AHEAD. ) ;
#150 = CARTESIAN_POINT ( 'NONE',  ( 6.989374044591536576E-16, -0.5500000000000000444, 0.2001836288464137747 ) ) ;
#151 = MECHANICAL_CONTEXT ( 'NONE', #132, 'mechanical' ) ;
#152 = ADVANCED_FACE ( 'NONE', ( #90, #110 ), #4, .T. ) ;
#153 = CC_DESIGN_APPROVAL ( #88, ( #218 ) ) ;
#154 = DIRECTION ( 'NONE',  ( -4.275831445896958607E-31, -1.000000000000000000, -1.224646799147353207E-16 ) ) ;
#155 = COORDINATED_UNIVERSAL_TIME_OFFSET ( 1, 0, .AHEAD. ) ;
#156 = EDGE_LOOP ( 'NONE', ( #203 ) ) ;
#157 = LOCAL_TIME ( 11, 22, 49.00000000000000000, #171 ) ;
#158 = PERSON_AND_ORGANIZATION ( #101, #176 ) ;
#159 = EDGE_LOOP ( 'NONE', ( #69 ) ) ;
#160 = EDGE_LOOP ( 'NONE', ( #48 ) ) ;
#161 = LOCAL_TIME ( 11, 22, 49.00000000000000000, #149 ) ;
#162 = FACE_BOUND ( 'NONE', #5, .T. ) ;
#163 = DIRECTION ( 'NONE',  ( 4.275831445896958607E-31, 1.000000000000000000, 1.224646799147353207E-16 ) ) ;
#164 = DIRECTION ( 'NONE',  ( 3.491481338843133355E-15, -1.229791517316362731E-16, 1.000000000000000000 ) ) ;
#165 = CARTESIAN_POINT ( 'NONE',  ( 1.326762908760390423E-13, -4.653657836759941941E-15, 38.00000000000000000 ) ) ;
#166 = FACE_OUTER_BOUND ( 'NONE', #86, .T. ) ;
#167 = APPROVAL_PERSON_ORGANIZATION ( #134, #204, #198 ) ;
#168 = CARTESIAN_POINT ( 'NONE',  ( 0.0000000000000000000, 0.0000000000000000000, 0.0000000000000000000 ) ) ;
#169 = CC_DESIGN_PERSON_AND_ORGANIZATION_ASSIGNMENT ( #31, #104, ( #218 ) ) ;
#170 = CC_DESIGN_PERSON_AND_ORGANIZATION_ASSIGNMENT ( #115, #180, ( #181 ) ) ;
#171 = COORDINATED_UNIVERSAL_TIME_OFFSET ( 1, 0, .AHEAD. ) ;
#172 = AXIS2_PLACEMENT_3D ( 'NONE', #148, #215, #129 ) ;
#173 = ORIENTED_EDGE ( 'NONE', *, *, #136, .F. ) ;
#174 = EDGE_CURVE ( 'NONE', #133, #133, #74, .T. ) ;
#175 = CARTESIAN_POINT ( 'NONE',  ( 3.142333204958820020E-14, 0.5499999999999989342, 9.000000000000000000 ) ) ;
#176 = ORGANIZATION ( 'UNSPECIFIED', 'UNSPECIFIED', '' ) ;
#177 = CARTESIAN_POINT ( 'NONE',  ( 6.989374044591538548E-16, -2.451542403084624132E-17, 0.2001836288464138303 ) ) ;
#178 = CARTESIAN_POINT ( 'NONE',  ( 1.326762908760390423E-13, -4.653657836759941941E-15, 38.00000000000000000 ) ) ;
#179 = FACE_OUTER_BOUND ( 'NONE', #159, .T. ) ;
#180 = PERSON_AND_ORGANIZATION_ROLE ( 'creator' ) ;
#181 = PRODUCT_DEFINITION_FORMATION_WITH_SPECIFIED_SOURCE ( 'ANY', '', #100, .NOT_KNOWN. ) ;
#182 = PERSON_AND_ORGANIZATION ( #101, #176 ) ;
#183 = CALENDAR_DATE ( 2021, 28, 10 ) ;
#184 = APPROVAL_PERSON_ORGANIZATION ( #116, #14, #197 ) ;
#185 = CARTESIAN_POINT ( 'NONE',  ( 3.142333204958820020E-14, 1.124819836996388964E-32, 9.000000000000000000 ) ) ;
#186 = ORIENTED_EDGE ( 'NONE', *, *, #38, .F. ) ;
#187 = APPLICATION_CONTEXT ( 'configuration controlled 3d designs of mechanical parts and assemblies' ) ;
#188 = ADVANCED_FACE ( 'NONE', ( #162, #39 ), #192, .T. ) ;
#189 = VERTEX_POINT ( 'NONE', #175 ) ;
#190 = APPROVAL_STATUS ( 'not_yet_approved' ) ;
#191 = VERTEX_POINT ( 'NONE', #199 ) ;
#192 = CONICAL_SURFACE ( 'NONE', #25, 1.499999999999998668, 0.2617993877991501295 ) ;
#193 = FACE_OUTER_BOUND ( 'NONE', #140, .T. ) ;
#194 = ADVANCED_FACE ( 'NONE', ( #166, #70 ), #209, .T. ) ;
#195 = DIRECTION ( 'NONE',  ( 3.491481338843133355E-15, -1.224646799147353207E-16, 1.000000000000000000 ) ) ;
#196 = AXIS2_PLACEMENT_3D ( 'NONE', #19, #144, #37 ) ;
#197 = APPROVAL_ROLE ( '' ) ;
#198 = APPROVAL_ROLE ( '' ) ;
#199 = CARTESIAN_POINT ( 'NONE',  ( 1.316288464743861212E-13, 1.499999999999995337, 37.69999999999999574 ) ) ;
#200 = EDGE_LOOP ( 'NONE', ( #173 ) ) ;
#201 = PERSON_AND_ORGANIZATION_ROLE ( 'creator' ) ;
#202 = AXIS2_PLACEMENT_3D ( 'NONE', #109, #195, #41 ) ;
#203 = ORIENTED_EDGE ( 'NONE', *, *, #136, .T. ) ;
#204 = APPROVAL ( #1, 'UNSPECIFIED' ) ;
#205 = CARTESIAN_POINT ( 'NONE',  ( 3.142333204958820020E-14, -1.106812365584726482E-15, 9.000000000000000000 ) ) ;
#206 = ORIENTED_EDGE ( 'NONE', *, *, #174, .F. ) ;
#207 = EDGE_LOOP ( 'NONE', ( #206 ) ) ;
#208 = VERTEX_POINT ( 'NONE', #122 ) ;
#209 = CYLINDRICAL_SURFACE ( 'NONE', #49, 0.5500000000000000444 ) ;
#210 = CALENDAR_DATE ( 2021, 28, 10 ) ;
#211 = CARTESIAN_POINT ( 'NONE',  ( 0.0000000000000000000, 0.0000000000000000000, 0.0000000000000000000 ) ) ;
#212 = CIRCLE ( 'NONE', #79, 0.5500000000000000444 ) ;
#213 = ADVANCED_FACE ( 'NONE', ( #10 ), #76, .T. ) ;
#214 = DIRECTION ( 'NONE',  ( -3.491481338843133355E-15, 1.224646799147353207E-16, -1.000000000000000000 ) ) ;
#215 = DIRECTION ( 'NONE',  ( 3.491481338843133355E-15, -1.224646799147353207E-16, 1.000000000000000000 ) ) ;
#216 = APPLICATION_PROTOCOL_DEFINITION ( 'international standard', 'config_control_design', 1994, #187 ) ;
#217 = AXIS2_PLACEMENT_3D ( 'NONE', #185, #30, #154 ) ;
#218 = SECURITY_CLASSIFICATION ( '', '', #78 ) ;
#219 = PERSON_AND_ORGANIZATION ( #101, #176 ) ;
#220 = UNCERTAINTY_MEASURE_WITH_UNIT (LENGTH_MEASURE( 1.000000000000000082E-05 ), #131, 'distance_accuracy_value', 'NONE');
#221 = DIRECTION ( 'NONE',  ( 1.000000000000000000, 0.0000000000000000000, 0.0000000000000000000 ) ) ;
#222 = PRODUCT_DEFINITION_SHAPE ( 'NONE', 'NONE',  #96 ) ;
#223 = APPROVAL_PERSON_ORGANIZATION ( #158, #88, #55 ) ;
ENDSEC;
END-ISO-10303-21;
