ISO-10303-21;
HEADER;
FILE_DESCRIPTION (( 'STEP AP203' ),
    '1' );
FILE_NAME ('962889.step',
    '2021-10-28T09:22:49',
    ( '' ),
    ( '' ),
    'SwSTEP 2.0',
    'SolidWorks 2019',
    '' );
FILE_SCHEMA (( 'CONFIG_CONTROL_DESIGN' ));
ENDSEC;

DATA;
#1 = DIRECTION ( 'NONE',  ( 3.491481338843133355E-15, -1.224646799147353207E-16, 1.000000000000000000 ) ) ;
#2 = EDGE_LOOP ( 'NONE', ( #22 ) ) ;
#3 = EDGE_CURVE ( 'NONE', #52, #52, #79, .T. ) ;
#4 = FACE_BOUND ( 'NONE', #143, .T. ) ;
#5 = APPROVAL_DATE_TIME ( #184, #158 ) ;
#6 = CARTESIAN_POINT ( 'NONE',  ( 1.316288464743861212E-13, -4.616918432785521081E-15, 37.69999999999999574 ) ) ;
#7 = APPLICATION_PROTOCOL_DEFINITION ( 'international standard', 'config_control_design', 1994, #59 ) ;
#8 = CARTESIAN_POINT ( 'NONE',  ( 6.925834280549796006E-16, -0.5450000000000000400, 0.1983637776750827586 ) ) ;
#9 = DIRECTION ( 'NONE',  ( 3.491481338843133355E-15, -1.224646799147353207E-16, 1.000000000000000000 ) ) ;
#10 = DATE_TIME_ROLE ( 'creation_date' ) ;
#11 = DIRECTION ( 'NONE',  ( -5.135813185032644414E-31, -1.000000000000000000, -1.445602896647343601E-16 ) ) ;
#12 = CONICAL_SURFACE ( 'NONE', #35, 1.499999999999998668, 0.2617993877991500740 ) ;
#13 = APPROVAL_PERSON_ORGANIZATION ( #84, #158, #163 ) ;
#14 = CC_DESIGN_DATE_AND_TIME_ASSIGNMENT ( #183, #10, ( #111 ) ) ;
#15 = AXIS2_PLACEMENT_3D ( 'NONE', #54, #197, #164 ) ;
#16 = PERSON_AND_ORGANIZATION ( #62, #109 ) ;
#17 = ADVANCED_FACE ( 'NONE', ( #159, #223 ), #12, .T. ) ;
#18 = AXIS2_PLACEMENT_3D ( 'NONE', #192, #126, #212 ) ;
#19 = CARTESIAN_POINT ( 'NONE',  ( 0.0000000000000000000, 0.0000000000000000000, 0.0000000000000000000 ) ) ;
#20 = ORIENTED_EDGE ( 'NONE', *, *, #204, .T. ) ;
#21 = CARTESIAN_POINT ( 'NONE',  ( 3.142333204958820020E-14, 1.124819836996388964E-32, 9.000000000000000000 ) ) ;
#22 = ORIENTED_EDGE ( 'NONE', *, *, #157, .T. ) ;
#23 = CARTESIAN_POINT ( 'NONE',  ( 3.142333204958820020E-14, -1.106812365584726482E-15, 9.000000000000000000 ) ) ;
#24 = DATE_AND_TIME ( #114, #215 ) ;
#25 = CC_DESIGN_PERSON_AND_ORGANIZATION_ASSIGNMENT ( #153, #132, ( #111 ) ) ;
#26 = DIRECTION ( 'NONE',  ( -3.491481338843133355E-15, 1.224646799147353207E-16, -1.000000000000000000 ) ) ;
#27 = APPLICATION_PROTOCOL_DEFINITION ( 'international standard', 'config_control_design', 1994, #72 ) ;
#28 = FACE_OUTER_BOUND ( 'NONE', #71, .T. ) ;
#29 = MANIFOLD_SOLID_BREP ( 'Corps-Déplacer/Copier1[1]', #222 ) ;
#30 = DIRECTION ( 'NONE',  ( -3.491481338843133355E-15, 1.229791517316362731E-16, -1.000000000000000000 ) ) ;
#31 = DIRECTION ( 'NONE',  ( -3.491481338843133355E-15, 1.224646799147353207E-16, -1.000000000000000000 ) ) ;
#32 = EDGE_LOOP ( 'NONE', ( #160 ) ) ;
#33 = PERSON_AND_ORGANIZATION_ROLE ( 'creator' ) ;
#34 = MANIFOLD_SOLID_BREP ( 'Corps-Déplacer/Copier1[2]', #208 ) ;
#35 = AXIS2_PLACEMENT_3D ( 'NONE', #144, #200, #110 ) ;
#36 = PRODUCT_DEFINITION_FORMATION_WITH_SPECIFIED_SOURCE ( 'ANY', '', #90, .NOT_KNOWN. ) ;
#37 = CALENDAR_DATE ( 2021, 28, 10 ) ;
#38 = APPROVAL_DATE_TIME ( #67, #57 ) ;
#39 = CIRCLE ( 'NONE', #18, 0.5450000000000000400 ) ;
#40 = ORIENTED_EDGE ( 'NONE', *, *, #106, .F. ) ;
#41 = DIRECTION ( 'NONE',  ( -3.533816411719698729E-31, -1.000000000000000000, -9.946808921885361542E-17 ) ) ;
#42 = FACE_OUTER_BOUND ( 'NONE', #108, .T. ) ;
#43 =( LENGTH_UNIT ( ) NAMED_UNIT ( * ) SI_UNIT ( .MILLI., .METRE. ) );
#44 = CARTESIAN_POINT ( 'NONE',  ( 1.326762908760390423E-13, -4.653657836759941941E-15, 38.00000000000000000 ) ) ;
#45 = PLANE ( 'NONE',  #187 ) ;
#46 = CALENDAR_DATE ( 2021, 28, 10 ) ;
#47 = COORDINATED_UNIVERSAL_TIME_OFFSET ( 1, 0, .AHEAD. ) ;
#48 = LOCAL_TIME ( 11, 22, 49.00000000000000000, #87 ) ;
#49 = CONICAL_SURFACE ( 'NONE', #116, 1.499999999999995559, 1.221730476396026388 ) ;
#50 = ADVANCED_FACE ( 'NONE', ( #28, #4 ), #123, .T. ) ;
#51 = EDGE_LOOP ( 'NONE', ( #20 ) ) ;
#52 = VERTEX_POINT ( 'NONE', #53 ) ;
#53 = CARTESIAN_POINT ( 'NONE',  ( 4.386735044106847491E-14, 1.499999999999997113, 12.56410852122826327 ) ) ;
#54 = CARTESIAN_POINT ( 'NONE',  ( 1.326762908760390423E-13, 8.998558695971077224E-33, 38.00000000000000000 ) ) ;
#55 = CIRCLE ( 'NONE', #136, 0.5450000000000000400 ) ;
#56 = PERSON_AND_ORGANIZATION_ROLE ( 'design_supplier' ) ;
#57 = APPROVAL ( #170, 'UNSPECIFIED' ) ;
#58 = CARTESIAN_POINT ( 'NONE',  ( 0.0000000000000000000, 0.0000000000000000000, 0.0000000000000000000 ) ) ;
#59 = APPLICATION_CONTEXT ( 'configuration controlled 3d designs of mechanical parts and assemblies' ) ;
#60 = DIRECTION ( 'NONE',  ( 0.0000000000000000000, 1.000000000000000000, 0.0000000000000000000 ) ) ;
#61 = CC_DESIGN_APPROVAL ( #86, ( #111 ) ) ;
#62 = PERSON ( 'UNSPECIFIED', 'UNSPECIFIED', 'UNSPECIFIED', ('UNSPECIFIED'), ('UNSPECIFIED'), ('UNSPECIFIED') ) ;
#63 = SECURITY_CLASSIFICATION_LEVEL ( 'unclassified' ) ;
#64 = EDGE_LOOP ( 'NONE', ( #210 ) ) ;
#65 = CC_DESIGN_PERSON_AND_ORGANIZATION_ASSIGNMENT ( #16, #186, ( #142 ) ) ;
#66 = ADVANCED_FACE ( 'NONE', ( #99, #42 ), #152, .T. ) ;
#67 = DATE_AND_TIME ( #37, #48 ) ;
#68 = AXIS2_PLACEMENT_3D ( 'NONE', #156, #26, #162 ) ;
#69 = APPROVAL_ROLE ( '' ) ;
#70 = SHAPE_DEFINITION_REPRESENTATION ( #81, #185 ) ;
#71 = EDGE_LOOP ( 'NONE', ( #213 ) ) ;
#72 = APPLICATION_CONTEXT ( 'configuration controlled 3d designs of mechanical parts and assemblies' ) ;
#73 = EDGE_LOOP ( 'NONE', ( #174 ) ) ;
#74 = AXIS2_PLACEMENT_3D ( 'NONE', #129, #30, #113 ) ;
#75 = CYLINDRICAL_SURFACE ( 'NONE', #120, 1.499999999999998224 ) ;
#76 = DIRECTION ( 'NONE',  ( -3.491481338843133355E-15, 1.229791517316362731E-16, -1.000000000000000000 ) ) ;
#77 = CARTESIAN_POINT ( 'NONE',  ( 3.142333204958820020E-14, 0.5449999999999989297, 9.000000000000000000 ) ) ;
#78 = PERSON_AND_ORGANIZATION ( #62, #109 ) ;
#79 = CIRCLE ( 'NONE', #127, 1.499999999999998668 ) ;
#80 = LOCAL_TIME ( 11, 22, 49.00000000000000000, #202 ) ;
#81 = PRODUCT_DEFINITION_SHAPE ( 'NONE', 'NONE',  #111 ) ;
#82 = DIRECTION ( 'NONE',  ( 0.0000000000000000000, 1.000000000000000000, 0.0000000000000000000 ) ) ;
#83 = FACE_OUTER_BOUND ( 'NONE', #191, .T. ) ;
#84 = PERSON_AND_ORGANIZATION ( #62, #109 ) ;
#85 = AXIS2_PLACEMENT_3D ( 'NONE', #21, #1, #148 ) ;
#86 = APPROVAL ( #177, 'UNSPECIFIED' ) ;
#87 = COORDINATED_UNIVERSAL_TIME_OFFSET ( 1, 0, .AHEAD. ) ;
#88 = DIRECTION ( 'NONE',  ( 0.0000000000000000000, 1.000000000000000000, 0.0000000000000000000 ) ) ;
#89 = EDGE_LOOP ( 'NONE', ( #182 ) ) ;
#90 = PRODUCT ( '962889', '962889', '', ( #214 ) ) ;
#91 = CIRCLE ( 'NONE', #128, 1.499999999999999778 ) ;
#92 = ADVANCED_FACE ( 'NONE', ( #83 ), #45, .T. ) ;
#93 = DIRECTION ( 'NONE',  ( -3.491481338843133355E-15, 1.224646799147353207E-16, -1.000000000000000000 ) ) ;
#94 = APPROVAL_STATUS ( 'not_yet_approved' ) ;
#95 = FACE_OUTER_BOUND ( 'NONE', #89, .T. ) ;
#96 = VERTEX_POINT ( 'NONE', #130 ) ;
#97 = LOCAL_TIME ( 11, 22, 49.00000000000000000, #221 ) ;
#98 = DIRECTION ( 'NONE',  ( 0.0000000000000000000, 0.0000000000000000000, 1.000000000000000000 ) ) ;
#99 = FACE_OUTER_BOUND ( 'NONE', #100, .T. ) ;
#100 = EDGE_LOOP ( 'NONE', ( #168 ) ) ;
#101 =( NAMED_UNIT ( * ) SI_UNIT ( $, .STERADIAN. ) SOLID_ANGLE_UNIT ( ) );
#102 = PERSON_AND_ORGANIZATION ( #62, #109 ) ;
#103 = ADVANCED_FACE ( 'NONE', ( #194 ), #49, .T. ) ;
#104 = CC_DESIGN_PERSON_AND_ORGANIZATION_ASSIGNMENT ( #149, #56, ( #36 ) ) ;
#105 = APPROVAL_PERSON_ORGANIZATION ( #102, #86, #131 ) ;
#106 = EDGE_CURVE ( 'NONE', #169, #169, #55, .T. ) ;
#107 = CIRCLE ( 'NONE', #147, 0.5450000000000000400 ) ;
#108 = EDGE_LOOP ( 'NONE', ( #179 ) ) ;
#109 = ORGANIZATION ( 'UNSPECIFIED', 'UNSPECIFIED', '' ) ;
#110 = DIRECTION ( 'NONE',  ( 0.0000000000000000000, -1.000000000000000000, 0.0000000000000000000 ) ) ;
#111 = PRODUCT_DEFINITION ( 'UNKNOWN', '', #36, #198 ) ;
#112 = ORIENTED_EDGE ( 'NONE', *, *, #3, .T. ) ;
#113 = DIRECTION ( 'NONE',  ( 4.293794133377661370E-31, 1.000000000000000000, 1.229791517316362731E-16 ) ) ;
#114 = CALENDAR_DATE ( 2021, 28, 10 ) ;
#115 = CARTESIAN_POINT ( 'NONE',  ( 1.906192921252232855E-15, -6.686024735685322183E-17, 0.5459553513993090634 ) ) ;
#116 = AXIS2_PLACEMENT_3D ( 'NONE', #115, #9, #11 ) ;
#117 = DIRECTION ( 'NONE',  ( 3.491481338843133355E-15, -1.224646799147353207E-16, 1.000000000000000000 ) ) ;
#118 = CALENDAR_DATE ( 2021, 28, 10 ) ;
#119 = CALENDAR_DATE ( 2021, 28, 10 ) ;
#120 = AXIS2_PLACEMENT_3D ( 'NONE', #19, #141, #146 ) ;
#121 = UNCERTAINTY_MEASURE_WITH_UNIT (LENGTH_MEASURE( 1.000000000000000082E-05 ), #43, 'distance_accuracy_value', 'NONE');
#122 = CC_DESIGN_PERSON_AND_ORGANIZATION_ASSIGNMENT ( #203, #195, ( #90 ) ) ;
#123 = CONICAL_SURFACE ( 'NONE', #140, 1.199999999999999956, 0.7853981633974453924 ) ;
#124 = CC_DESIGN_SECURITY_CLASSIFICATION ( #142, ( #36 ) ) ;
#125 = EDGE_LOOP ( 'NONE', ( #112 ) ) ;
#126 = DIRECTION ( 'NONE',  ( -3.491481338843133355E-15, 1.229791517316362731E-16, -1.000000000000000000 ) ) ;
#127 = AXIS2_PLACEMENT_3D ( 'NONE', #137, #76, #88 ) ;
#128 = AXIS2_PLACEMENT_3D ( 'NONE', #6, #205, #206 ) ;
#129 = CARTESIAN_POINT ( 'NONE',  ( 0.0000000000000000000, 0.0000000000000000000, 0.0000000000000000000 ) ) ;
#130 = CARTESIAN_POINT ( 'NONE',  ( 1.316288464743861212E-13, 1.499999999999995337, 37.69999999999999574 ) ) ;
#131 = APPROVAL_ROLE ( '' ) ;
#132 = PERSON_AND_ORGANIZATION_ROLE ( 'creator' ) ;
#133 =( GEOMETRIC_REPRESENTATION_CONTEXT ( 3 ) GLOBAL_UNCERTAINTY_ASSIGNED_CONTEXT ( ( #121 ) ) GLOBAL_UNIT_ASSIGNED_CONTEXT ( ( #43, #155, #101 ) ) REPRESENTATION_CONTEXT ( 'NONE', 'WORKASPACE' ) );
#134 = PERSON_AND_ORGANIZATION ( #62, #109 ) ;
#135 = DATE_AND_TIME ( #119, #97 ) ;
#136 = AXIS2_PLACEMENT_3D ( 'NONE', #23, #218, #60 ) ;
#137 = CARTESIAN_POINT ( 'NONE',  ( 4.386735044106847491E-14, -1.545123408204874758E-15, 12.56410852122826327 ) ) ;
#138 = DATE_TIME_ROLE ( 'classification_date' ) ;
#139 = EDGE_CURVE ( 'NONE', #199, #199, #189, .T. ) ;
#140 = AXIS2_PLACEMENT_3D ( 'NONE', #44, #31, #82 ) ;
#141 = DIRECTION ( 'NONE',  ( -3.491481338843133355E-15, 1.224646799147353207E-16, -1.000000000000000000 ) ) ;
#142 = SECURITY_CLASSIFICATION ( '', '', #63 ) ;
#143 = EDGE_LOOP ( 'NONE', ( #211 ) ) ;
#144 = CARTESIAN_POINT ( 'NONE',  ( 4.386735044106847491E-14, -1.545123408204874758E-15, 12.56410852122826327 ) ) ;
#145 = CC_DESIGN_PERSON_AND_ORGANIZATION_ASSIGNMENT ( #78, #33, ( #36 ) ) ;
#146 = DIRECTION ( 'NONE',  ( 4.275831445896958607E-31, 1.000000000000000000, 1.224646799147353207E-16 ) ) ;
#147 = AXIS2_PLACEMENT_3D ( 'NONE', #180, #93, #41 ) ;
#148 = DIRECTION ( 'NONE',  ( -4.275831445896958607E-31, -1.000000000000000000, -1.224646799147353207E-16 ) ) ;
#149 = PERSON_AND_ORGANIZATION ( #62, #109 ) ;
#150 = CARTESIAN_POINT ( 'NONE',  ( 3.142333204958820020E-14, 0.5449999999999989297, 9.000000000000000000 ) ) ;
#151 = FACE_OUTER_BOUND ( 'NONE', #32, .T. ) ;
#152 = CYLINDRICAL_SURFACE ( 'NONE', #74, 0.5450000000000000400 ) ;
#153 = PERSON_AND_ORGANIZATION ( #62, #109 ) ;
#154 = CARTESIAN_POINT ( 'NONE',  ( 3.142333204958820020E-14, 1.124819836996388964E-32, 9.000000000000000000 ) ) ;
#155 =( NAMED_UNIT ( * ) PLANE_ANGLE_UNIT ( ) SI_UNIT ( $, .RADIAN. ) );
#156 = CARTESIAN_POINT ( 'NONE',  ( 1.326762908760390423E-13, -4.653657836759941941E-15, 38.00000000000000000 ) ) ;
#157 = EDGE_CURVE ( 'NONE', #216, #216, #107, .T. ) ;
#158 = APPROVAL ( #94, 'UNSPECIFIED' ) ;
#159 = FACE_BOUND ( 'NONE', #73, .T. ) ;
#160 = ORIENTED_EDGE ( 'NONE', *, *, #190, .T. ) ;
#161 = PRODUCT_RELATED_PRODUCT_CATEGORY ( 'detail', '', ( #90 ) ) ;
#162 = DIRECTION ( 'NONE',  ( 0.0000000000000000000, 1.000000000000000000, 0.0000000000000000000 ) ) ;
#163 = APPROVAL_ROLE ( '' ) ;
#164 = DIRECTION ( 'NONE',  ( 4.275831445896958607E-31, 1.000000000000000000, 1.224646799147353207E-16 ) ) ;
#165 = CC_DESIGN_APPROVAL ( #158, ( #36 ) ) ;
#166 = APPROVAL_DATE_TIME ( #24, #86 ) ;
#167 = DIRECTION ( 'NONE',  ( -4.275831445896958607E-31, -1.000000000000000000, -1.224646799147353207E-16 ) ) ;
#168 = ORIENTED_EDGE ( 'NONE', *, *, #106, .T. ) ;
#169 = VERTEX_POINT ( 'NONE', #150 ) ;
#170 = APPROVAL_STATUS ( 'not_yet_approved' ) ;
#171 = ADVANCED_FACE ( 'NONE', ( #95 ), #176, .F. ) ;
#172 = FACE_OUTER_BOUND ( 'NONE', #51, .T. ) ;
#173 = CC_DESIGN_APPROVAL ( #57, ( #142 ) ) ;
#174 = ORIENTED_EDGE ( 'NONE', *, *, #204, .F. ) ;
#175 = PLANE ( 'NONE',  #85 ) ;
#176 = PLANE ( 'NONE',  #15 ) ;
#177 = APPROVAL_STATUS ( 'not_yet_approved' ) ;
#178 = CC_DESIGN_DATE_AND_TIME_ASSIGNMENT ( #135, #138, ( #142 ) ) ;
#179 = ORIENTED_EDGE ( 'NONE', *, *, #157, .F. ) ;
#180 = CARTESIAN_POINT ( 'NONE',  ( 6.925834280549797978E-16, -2.429255653965673424E-17, 0.1983637776750828141 ) ) ;
#181 = VERTEX_POINT ( 'NONE', #77 ) ;
#182 = ORIENTED_EDGE ( 'NONE', *, *, #139, .F. ) ;
#183 = DATE_AND_TIME ( #46, #80 ) ;
#184 = DATE_AND_TIME ( #118, #207 ) ;
#185 = ADVANCED_BREP_SHAPE_REPRESENTATION ( '962889', ( #29, #34, #196 ), #133 ) ;
#186 = PERSON_AND_ORGANIZATION_ROLE ( 'classification_officer' ) ;
#187 = AXIS2_PLACEMENT_3D ( 'NONE', #154, #117, #167 ) ;
#188 = FACE_OUTER_BOUND ( 'NONE', #64, .T. ) ;
#189 = CIRCLE ( 'NONE', #68, 1.199999999999999956 ) ;
#190 = EDGE_CURVE ( 'NONE', #96, #96, #91, .T. ) ;
#191 = EDGE_LOOP ( 'NONE', ( #40 ) ) ;
#192 = CARTESIAN_POINT ( 'NONE',  ( 3.142333204958820020E-14, -1.106812365584726482E-15, 9.000000000000000000 ) ) ;
#193 = ADVANCED_FACE ( 'NONE', ( #188, #151 ), #75, .T. ) ;
#194 = FACE_OUTER_BOUND ( 'NONE', #2, .T. ) ;
#195 = PERSON_AND_ORGANIZATION_ROLE ( 'design_owner' ) ;
#196 = AXIS2_PLACEMENT_3D ( 'NONE', #58, #98, #219 ) ;
#197 = DIRECTION ( 'NONE',  ( -3.491481338843133355E-15, 1.224646799147353207E-16, -1.000000000000000000 ) ) ;
#198 = DESIGN_CONTEXT ( 'detailed design', #72, 'design' ) ;
#199 = VERTEX_POINT ( 'NONE', #217 ) ;
#200 = DIRECTION ( 'NONE',  ( 3.491481338843133355E-15, -1.229791517316362731E-16, 1.000000000000000000 ) ) ;
#201 = COORDINATED_UNIVERSAL_TIME_OFFSET ( 1, 0, .AHEAD. ) ;
#202 = COORDINATED_UNIVERSAL_TIME_OFFSET ( 1, 0, .AHEAD. ) ;
#203 = PERSON_AND_ORGANIZATION ( #62, #109 ) ;
#204 = EDGE_CURVE ( 'NONE', #181, #181, #39, .T. ) ;
#205 = DIRECTION ( 'NONE',  ( -3.491481338843133355E-15, 1.224646799147353207E-16, -1.000000000000000000 ) ) ;
#206 = DIRECTION ( 'NONE',  ( 0.0000000000000000000, 1.000000000000000000, 0.0000000000000000000 ) ) ;
#207 = LOCAL_TIME ( 11, 22, 49.00000000000000000, #47 ) ;
#208 = CLOSED_SHELL ( 'NONE', ( #92, #66, #103 ) ) ;
#209 = ADVANCED_FACE ( 'NONE', ( #172 ), #175, .F. ) ;
#210 = ORIENTED_EDGE ( 'NONE', *, *, #3, .F. ) ;
#211 = ORIENTED_EDGE ( 'NONE', *, *, #139, .T. ) ;
#212 = DIRECTION ( 'NONE',  ( 0.0000000000000000000, 1.000000000000000000, 0.0000000000000000000 ) ) ;
#213 = ORIENTED_EDGE ( 'NONE', *, *, #190, .F. ) ;
#214 = MECHANICAL_CONTEXT ( 'NONE', #59, 'mechanical' ) ;
#215 = LOCAL_TIME ( 11, 22, 49.00000000000000000, #201 ) ;
#216 = VERTEX_POINT ( 'NONE', #8 ) ;
#217 = CARTESIAN_POINT ( 'NONE',  ( 1.326762908760390423E-13, 1.199999999999995293, 38.00000000000000000 ) ) ;
#218 = DIRECTION ( 'NONE',  ( -3.491481338843133355E-15, 1.229791517316362731E-16, -1.000000000000000000 ) ) ;
#219 = DIRECTION ( 'NONE',  ( 1.000000000000000000, 0.0000000000000000000, 0.0000000000000000000 ) ) ;
#220 = APPROVAL_PERSON_ORGANIZATION ( #134, #57, #69 ) ;
#221 = COORDINATED_UNIVERSAL_TIME_OFFSET ( 1, 0, .AHEAD. ) ;
#222 = CLOSED_SHELL ( 'NONE', ( #193, #50, #171, #17, #209 ) ) ;
#223 = FACE_OUTER_BOUND ( 'NONE', #125, .T. ) ;
ENDSEC;
END-ISO-10303-21;
