ISO-10303-21;
HEADER;
FILE_DESCRIPTION (( 'STEP AP203' ),
    '1' );
FILE_NAME ('962888.step',
    '2021-10-28T09:22:48',
    ( '' ),
    ( '' ),
    'SwSTEP 2.0',
    'SolidWorks 2019',
    '' );
FILE_SCHEMA (( 'CONFIG_CONTROL_DESIGN' ));
ENDSEC;

DATA;
#1 = VERTEX_POINT ( 'NONE', #141 ) ;
#2 = AXIS2_PLACEMENT_3D ( 'NONE', #159, #8, #202 ) ;
#3 = ORIENTED_EDGE ( 'NONE', *, *, #15, .F. ) ;
#4 = EDGE_CURVE ( 'NONE', #139, #139, #14, .T. ) ;
#5 = FACE_OUTER_BOUND ( 'NONE', #64, .T. ) ;
#6 = APPROVAL_ROLE ( '' ) ;
#7 = EDGE_LOOP ( 'NONE', ( #3 ) ) ;
#8 = DIRECTION ( 'NONE',  ( -3.491481338843133355E-15, 1.224646799147353207E-16, -1.000000000000000000 ) ) ;
#9 = APPROVAL_STATUS ( 'not_yet_approved' ) ;
#10 = ORIENTED_EDGE ( 'NONE', *, *, #208, .F. ) ;
#11 = DIRECTION ( 'NONE',  ( 3.491481338843133355E-15, -1.224646799147353207E-16, 1.000000000000000000 ) ) ;
#12 = PERSON_AND_ORGANIZATION ( #153, #47 ) ;
#13 = FACE_OUTER_BOUND ( 'NONE', #179, .T. ) ;
#14 = CIRCLE ( 'NONE', #101, 0.5400000000000000355 ) ;
#15 = EDGE_CURVE ( 'NONE', #69, #69, #135, .T. ) ;
#16 = DATE_AND_TIME ( #177, #140 ) ;
#17 = AXIS2_PLACEMENT_3D ( 'NONE', #31, #163, #28 ) ;
#18 = CARTESIAN_POINT ( 'NONE',  ( 6.862294516508053465E-16, -0.5400000000000000355, 0.1965439265037516869 ) ) ;
#19 = EDGE_LOOP ( 'NONE', ( #156 ) ) ;
#20 = CARTESIAN_POINT ( 'NONE',  ( 1.316288464743861212E-13, 1.499999999999995337, 37.69999999999999574 ) ) ;
#21 = ADVANCED_BREP_SHAPE_REPRESENTATION ( '962888', ( #98, #169, #191 ), #181 ) ;
#22 = FACE_OUTER_BOUND ( 'NONE', #207, .T. ) ;
#23 = ORIENTED_EDGE ( 'NONE', *, *, #62, .T. ) ;
#24 = CYLINDRICAL_SURFACE ( 'NONE', #105, 0.5400000000000000355 ) ;
#25 = APPROVAL_DATE_TIME ( #194, #58 ) ;
#26 = FACE_OUTER_BOUND ( 'NONE', #37, .T. ) ;
#27 = COORDINATED_UNIVERSAL_TIME_OFFSET ( 1, 0, .AHEAD. ) ;
#28 = DIRECTION ( 'NONE',  ( 0.0000000000000000000, -1.000000000000000000, 0.0000000000000000000 ) ) ;
#29 = PERSON_AND_ORGANIZATION_ROLE ( 'creator' ) ;
#30 = LOCAL_TIME ( 11, 22, 48.00000000000000000, #149 ) ;
#31 = CARTESIAN_POINT ( 'NONE',  ( 4.393250236981968318E-14, -1.547418230417545784E-15, 12.58276877526610704 ) ) ;
#32 = COORDINATED_UNIVERSAL_TIME_OFFSET ( 1, 0, .AHEAD. ) ;
#33 = FACE_OUTER_BOUND ( 'NONE', #7, .T. ) ;
#34 = PRODUCT_DEFINITION_SHAPE ( 'NONE', 'NONE',  #151 ) ;
#35 = CONICAL_SURFACE ( 'NONE', #154, 1.199999999999999956, 0.7853981633974453924 ) ;
#36 = AXIS2_PLACEMENT_3D ( 'NONE', #127, #219, #90 ) ;
#37 = EDGE_LOOP ( 'NONE', ( #10 ) ) ;
#38 = APPROVAL_PERSON_ORGANIZATION ( #128, #58, #183 ) ;
#39 = PLANE ( 'NONE',  #137 ) ;
#40 = MECHANICAL_CONTEXT ( 'NONE', #217, 'mechanical' ) ;
#41 = CYLINDRICAL_SURFACE ( 'NONE', #2, 1.499999999999998224 ) ;
#42 = FACE_BOUND ( 'NONE', #123, .T. ) ;
#43 = CARTESIAN_POINT ( 'NONE',  ( 3.142333204958820020E-14, -1.106812365584726482E-15, 9.000000000000000000 ) ) ;
#44 = DIRECTION ( 'NONE',  ( 0.0000000000000000000, 0.0000000000000000000, 1.000000000000000000 ) ) ;
#45 = APPROVAL_STATUS ( 'not_yet_approved' ) ;
#46 = ADVANCED_FACE ( 'NONE', ( #107 ), #109, .F. ) ;
#47 = ORGANIZATION ( 'UNSPECIFIED', 'UNSPECIFIED', '' ) ;
#48 = ADVANCED_FACE ( 'NONE', ( #22, #86 ), #35, .T. ) ;
#49 = CIRCLE ( 'NONE', #36, 1.499999999999998668 ) ;
#50 = ADVANCED_FACE ( 'NONE', ( #223 ), #75, .T. ) ;
#51 = ORIENTED_EDGE ( 'NONE', *, *, #118, .F. ) ;
#52 = CIRCLE ( 'NONE', #222, 1.199999999999999956 ) ;
#53 = VERTEX_POINT ( 'NONE', #136 ) ;
#54 = DIRECTION ( 'NONE',  ( 1.000000000000000000, 0.0000000000000000000, 0.0000000000000000000 ) ) ;
#55 = DIRECTION ( 'NONE',  ( -3.491481338843133355E-15, 1.224646799147353207E-16, -1.000000000000000000 ) ) ;
#56 = DATE_AND_TIME ( #115, #132 ) ;
#57 = ORIENTED_EDGE ( 'NONE', *, *, #166, .F. ) ;
#58 = APPROVAL ( #9, 'UNSPECIFIED' ) ;
#59 = PERSON_AND_ORGANIZATION ( #153, #47 ) ;
#60 = DIRECTION ( 'NONE',  ( 3.491481338843133355E-15, -1.224646799147353207E-16, 1.000000000000000000 ) ) ;
#61 = DATE_AND_TIME ( #220, #30 ) ;
#62 = EDGE_CURVE ( 'NONE', #190, #190, #185, .T. ) ;
#63 = CONICAL_SURFACE ( 'NONE', #87, 1.499999999999995559, 1.221730476396026388 ) ;
#64 = EDGE_LOOP ( 'NONE', ( #92 ) ) ;
#65 = AXIS2_PLACEMENT_3D ( 'NONE', #43, #114, #145 ) ;
#66 = CC_DESIGN_SECURITY_CLASSIFICATION ( #161, ( #102 ) ) ;
#67 = AXIS2_PLACEMENT_3D ( 'NONE', #176, #206, #122 ) ;
#68 = DIRECTION ( 'NONE',  ( 0.0000000000000000000, 1.000000000000000000, 0.0000000000000000000 ) ) ;
#69 = VERTEX_POINT ( 'NONE', #18 ) ;
#70 = DIRECTION ( 'NONE',  ( -3.491481338843133355E-15, 1.224646799147353207E-16, -1.000000000000000000 ) ) ;
#71 = UNCERTAINTY_MEASURE_WITH_UNIT (LENGTH_MEASURE( 1.000000000000000082E-05 ), #162, 'distance_accuracy_value', 'NONE');
#72 = APPROVAL_ROLE ( '' ) ;
#73 = COORDINATED_UNIVERSAL_TIME_OFFSET ( 1, 0, .AHEAD. ) ;
#74 =( NAMED_UNIT ( * ) PLANE_ANGLE_UNIT ( ) SI_UNIT ( $, .RADIAN. ) );
#75 = PLANE ( 'NONE',  #126 ) ;
#76 =( NAMED_UNIT ( * ) SI_UNIT ( $, .STERADIAN. ) SOLID_ANGLE_UNIT ( ) );
#77 = DIRECTION ( 'NONE',  ( -5.135813185032644414E-31, -1.000000000000000000, -1.445602896647343601E-16 ) ) ;
#78 = PERSON_AND_ORGANIZATION ( #153, #47 ) ;
#79 = CLOSED_SHELL ( 'NONE', ( #189, #48, #187, #103, #46 ) ) ;
#80 = CC_DESIGN_APPROVAL ( #215, ( #151 ) ) ;
#81 = CC_DESIGN_PERSON_AND_ORGANIZATION_ASSIGNMENT ( #97, #29, ( #102 ) ) ;
#82 = LOCAL_TIME ( 11, 22, 48.00000000000000000, #32 ) ;
#83 = EDGE_LOOP ( 'NONE', ( #203 ) ) ;
#84 = PRODUCT ( '962888', '962888', '', ( #40 ) ) ;
#85 = PRODUCT_RELATED_PRODUCT_CATEGORY ( 'detail', '', ( #84 ) ) ;
#86 = FACE_BOUND ( 'NONE', #113, .T. ) ;
#87 = AXIS2_PLACEMENT_3D ( 'NONE', #95, #11, #77 ) ;
#88 = DIRECTION ( 'NONE',  ( 4.275831445896958607E-31, 1.000000000000000000, 1.224646799147353207E-16 ) ) ;
#89 = PERSON_AND_ORGANIZATION_ROLE ( 'design_owner' ) ;
#90 = DIRECTION ( 'NONE',  ( 0.0000000000000000000, 1.000000000000000000, 0.0000000000000000000 ) ) ;
#91 = DATE_TIME_ROLE ( 'creation_date' ) ;
#92 = ORIENTED_EDGE ( 'NONE', *, *, #118, .T. ) ;
#93 = CC_DESIGN_APPROVAL ( #184, ( #161 ) ) ;
#94 = APPLICATION_PROTOCOL_DEFINITION ( 'international standard', 'config_control_design', 1994, #100 ) ;
#95 = CARTESIAN_POINT ( 'NONE',  ( 1.906192921252232855E-15, -6.686024735685322183E-17, 0.5459553513993090634 ) ) ;
#96 = DIRECTION ( 'NONE',  ( -3.566536934050436538E-31, -1.000000000000000000, -1.003890900449541079E-16 ) ) ;
#97 = PERSON_AND_ORGANIZATION ( #153, #47 ) ;
#98 = MANIFOLD_SOLID_BREP ( 'Corps-Déplacer/Copier1[1]', #79 ) ;
#99 = COORDINATED_UNIVERSAL_TIME_OFFSET ( 1, 0, .AHEAD. ) ;
#100 = APPLICATION_CONTEXT ( 'configuration controlled 3d designs of mechanical parts and assemblies' ) ;
#101 = AXIS2_PLACEMENT_3D ( 'NONE', #104, #173, #68 ) ;
#102 = PRODUCT_DEFINITION_FORMATION_WITH_SPECIFIED_SOURCE ( 'ANY', '', #84, .NOT_KNOWN. ) ;
#103 = ADVANCED_FACE ( 'NONE', ( #42, #116 ), #121, .T. ) ;
#104 = CARTESIAN_POINT ( 'NONE',  ( 3.142333204958820020E-14, -1.106812365584726482E-15, 9.000000000000000000 ) ) ;
#105 = AXIS2_PLACEMENT_3D ( 'NONE', #195, #218, #150 ) ;
#106 = CARTESIAN_POINT ( 'NONE',  ( 1.326762908760390423E-13, 8.998558695971077224E-33, 38.00000000000000000 ) ) ;
#107 = FACE_OUTER_BOUND ( 'NONE', #210, .T. ) ;
#108 = CARTESIAN_POINT ( 'NONE',  ( 0.0000000000000000000, 0.0000000000000000000, 0.0000000000000000000 ) ) ;
#109 = PLANE ( 'NONE',  #67 ) ;
#110 = CALENDAR_DATE ( 2021, 28, 10 ) ;
#111 = CARTESIAN_POINT ( 'NONE',  ( 1.316288464743861212E-13, -4.616918432785521081E-15, 37.69999999999999574 ) ) ;
#112 = PERSON_AND_ORGANIZATION_ROLE ( 'design_supplier' ) ;
#113 = EDGE_LOOP ( 'NONE', ( #131 ) ) ;
#114 = DIRECTION ( 'NONE',  ( -3.491481338843133355E-15, 1.229791517316362731E-16, -1.000000000000000000 ) ) ;
#115 = CALENDAR_DATE ( 2021, 28, 10 ) ;
#116 = FACE_OUTER_BOUND ( 'NONE', #19, .T. ) ;
#117 = PERSON_AND_ORGANIZATION ( #153, #47 ) ;
#118 = EDGE_CURVE ( 'NONE', #212, #212, #221, .T. ) ;
#119 = APPROVAL_DATE_TIME ( #16, #184 ) ;
#120 = CC_DESIGN_PERSON_AND_ORGANIZATION_ASSIGNMENT ( #59, #89, ( #84 ) ) ;
#121 = CONICAL_SURFACE ( 'NONE', #17, 1.499999999999998668, 0.2617993877991500740 ) ;
#122 = DIRECTION ( 'NONE',  ( -4.275831445896958607E-31, -1.000000000000000000, -1.224646799147353207E-16 ) ) ;
#123 = EDGE_LOOP ( 'NONE', ( #138 ) ) ;
#124 = ADVANCED_FACE ( 'NONE', ( #148, #33 ), #24, .T. ) ;
#125 = CALENDAR_DATE ( 2021, 28, 10 ) ;
#126 = AXIS2_PLACEMENT_3D ( 'NONE', #193, #60, #197 ) ;
#127 = CARTESIAN_POINT ( 'NONE',  ( 4.393250236981968318E-14, -1.547418230417545784E-15, 12.58276877526610704 ) ) ;
#128 = PERSON_AND_ORGANIZATION ( #153, #47 ) ;
#129 = PERSON_AND_ORGANIZATION_ROLE ( 'creator' ) ;
#130 = DATE_AND_TIME ( #125, #172 ) ;
#131 = ORIENTED_EDGE ( 'NONE', *, *, #208, .T. ) ;
#132 = LOCAL_TIME ( 11, 22, 48.00000000000000000, #27 ) ;
#133 = DATE_TIME_ROLE ( 'classification_date' ) ;
#134 = AXIS2_PLACEMENT_3D ( 'NONE', #143, #182, #96 ) ;
#135 = CIRCLE ( 'NONE', #134, 0.5400000000000000355 ) ;
#136 = CARTESIAN_POINT ( 'NONE',  ( 1.326762908760390423E-13, 1.199999999999995293, 38.00000000000000000 ) ) ;
#137 = AXIS2_PLACEMENT_3D ( 'NONE', #106, #175, #88 ) ;
#138 = ORIENTED_EDGE ( 'NONE', *, *, #4, .F. ) ;
#139 = VERTEX_POINT ( 'NONE', #174 ) ;
#140 = LOCAL_TIME ( 11, 22, 48.00000000000000000, #73 ) ;
#141 = CARTESIAN_POINT ( 'NONE',  ( 4.393250236981968318E-14, 1.499999999999997113, 12.58276877526610704 ) ) ;
#142 = APPLICATION_PROTOCOL_DEFINITION ( 'international standard', 'config_control_design', 1994, #217 ) ;
#143 = CARTESIAN_POINT ( 'NONE',  ( 6.862294516508055437E-16, -2.406968904846721483E-17, 0.1965439265037517425 ) ) ;
#144 = DIRECTION ( 'NONE',  ( 0.0000000000000000000, 1.000000000000000000, 0.0000000000000000000 ) ) ;
#145 = DIRECTION ( 'NONE',  ( 0.0000000000000000000, 1.000000000000000000, 0.0000000000000000000 ) ) ;
#146 = CC_DESIGN_PERSON_AND_ORGANIZATION_ASSIGNMENT ( #78, #201, ( #161 ) ) ;
#147 = APPROVAL_STATUS ( 'not_yet_approved' ) ;
#148 = FACE_OUTER_BOUND ( 'NONE', #188, .T. ) ;
#149 = COORDINATED_UNIVERSAL_TIME_OFFSET ( 1, 0, .AHEAD. ) ;
#150 = DIRECTION ( 'NONE',  ( 4.293794133377662246E-31, 1.000000000000000000, 1.229791517316362731E-16 ) ) ;
#151 = PRODUCT_DEFINITION ( 'UNKNOWN', '', #102, #214 ) ;
#152 = SHAPE_DEFINITION_REPRESENTATION ( #34, #21 ) ;
#153 = PERSON ( 'UNSPECIFIED', 'UNSPECIFIED', 'UNSPECIFIED', ('UNSPECIFIED'), ('UNSPECIFIED'), ('UNSPECIFIED') ) ;
#154 = AXIS2_PLACEMENT_3D ( 'NONE', #157, #70, #155 ) ;
#155 = DIRECTION ( 'NONE',  ( 0.0000000000000000000, 1.000000000000000000, 0.0000000000000000000 ) ) ;
#156 = ORIENTED_EDGE ( 'NONE', *, *, #166, .T. ) ;
#157 = CARTESIAN_POINT ( 'NONE',  ( 1.326762908760390423E-13, -4.653657836759941941E-15, 38.00000000000000000 ) ) ;
#158 = FACE_OUTER_BOUND ( 'NONE', #211, .T. ) ;
#159 = CARTESIAN_POINT ( 'NONE',  ( 0.0000000000000000000, 0.0000000000000000000, 0.0000000000000000000 ) ) ;
#160 = ADVANCED_FACE ( 'NONE', ( #13 ), #63, .T. ) ;
#161 = SECURITY_CLASSIFICATION ( '', '', #164 ) ;
#162 =( LENGTH_UNIT ( ) NAMED_UNIT ( * ) SI_UNIT ( .MILLI., .METRE. ) );
#163 = DIRECTION ( 'NONE',  ( 3.491481338843133355E-15, -1.229791517316362731E-16, 1.000000000000000000 ) ) ;
#164 = SECURITY_CLASSIFICATION_LEVEL ( 'unclassified' ) ;
#165 = ORIENTED_EDGE ( 'NONE', *, *, #4, .T. ) ;
#166 = EDGE_CURVE ( 'NONE', #1, #1, #49, .T. ) ;
#167 = APPROVAL_DATE_TIME ( #130, #215 ) ;
#168 = APPROVAL_PERSON_ORGANIZATION ( #117, #184, #72 ) ;
#169 = MANIFOLD_SOLID_BREP ( 'Corps-Déplacer/Copier1[2]', #209 ) ;
#170 = CC_DESIGN_PERSON_AND_ORGANIZATION_ASSIGNMENT ( #12, #112, ( #102 ) ) ;
#171 = CARTESIAN_POINT ( 'NONE',  ( 3.142333204958820020E-14, 0.5399999999999989253, 9.000000000000000000 ) ) ;
#172 = LOCAL_TIME ( 11, 22, 48.00000000000000000, #99 ) ;
#173 = DIRECTION ( 'NONE',  ( -3.491481338843133355E-15, 1.229791517316362731E-16, -1.000000000000000000 ) ) ;
#174 = CARTESIAN_POINT ( 'NONE',  ( 3.142333204958820020E-14, 0.5399999999999989253, 9.000000000000000000 ) ) ;
#175 = DIRECTION ( 'NONE',  ( -3.491481338843133355E-15, 1.224646799147353207E-16, -1.000000000000000000 ) ) ;
#176 = CARTESIAN_POINT ( 'NONE',  ( 3.142333204958820020E-14, 1.124819836996388964E-32, 9.000000000000000000 ) ) ;
#177 = CALENDAR_DATE ( 2021, 28, 10 ) ;
#178 = CC_DESIGN_DATE_AND_TIME_ASSIGNMENT ( #56, #91, ( #151 ) ) ;
#179 = EDGE_LOOP ( 'NONE', ( #213 ) ) ;
#180 = DIRECTION ( 'NONE',  ( 0.0000000000000000000, 1.000000000000000000, 0.0000000000000000000 ) ) ;
#181 =( GEOMETRIC_REPRESENTATION_CONTEXT ( 3 ) GLOBAL_UNCERTAINTY_ASSIGNED_CONTEXT ( ( #71 ) ) GLOBAL_UNIT_ASSIGNED_CONTEXT ( ( #162, #74, #76 ) ) REPRESENTATION_CONTEXT ( 'NONE', 'WORKASPACE' ) );
#182 = DIRECTION ( 'NONE',  ( -3.491481338843133355E-15, 1.224646799147353207E-16, -1.000000000000000000 ) ) ;
#183 = APPROVAL_ROLE ( '' ) ;
#184 = APPROVAL ( #45, 'UNSPECIFIED' ) ;
#185 = CIRCLE ( 'NONE', #65, 0.5400000000000000355 ) ;
#186 = DIRECTION ( 'NONE',  ( -3.491481338843133355E-15, 1.224646799147353207E-16, -1.000000000000000000 ) ) ;
#187 = ADVANCED_FACE ( 'NONE', ( #26 ), #39, .F. ) ;
#188 = EDGE_LOOP ( 'NONE', ( #23 ) ) ;
#189 = ADVANCED_FACE ( 'NONE', ( #158, #5 ), #41, .T. ) ;
#190 = VERTEX_POINT ( 'NONE', #171 ) ;
#191 = AXIS2_PLACEMENT_3D ( 'NONE', #108, #44, #54 ) ;
#192 = CC_DESIGN_DATE_AND_TIME_ASSIGNMENT ( #61, #133, ( #161 ) ) ;
#193 = CARTESIAN_POINT ( 'NONE',  ( 3.142333204958820020E-14, 1.124819836996388964E-32, 9.000000000000000000 ) ) ;
#194 = DATE_AND_TIME ( #110, #82 ) ;
#195 = CARTESIAN_POINT ( 'NONE',  ( 0.0000000000000000000, 0.0000000000000000000, 0.0000000000000000000 ) ) ;
#196 = CC_DESIGN_PERSON_AND_ORGANIZATION_ASSIGNMENT ( #198, #129, ( #151 ) ) ;
#197 = DIRECTION ( 'NONE',  ( -4.275831445896958607E-31, -1.000000000000000000, -1.224646799147353207E-16 ) ) ;
#198 = PERSON_AND_ORGANIZATION ( #153, #47 ) ;
#199 = PERSON_AND_ORGANIZATION ( #153, #47 ) ;
#200 = AXIS2_PLACEMENT_3D ( 'NONE', #111, #55, #180 ) ;
#201 = PERSON_AND_ORGANIZATION_ROLE ( 'classification_officer' ) ;
#202 = DIRECTION ( 'NONE',  ( 4.275831445896958607E-31, 1.000000000000000000, 1.224646799147353207E-16 ) ) ;
#203 = ORIENTED_EDGE ( 'NONE', *, *, #62, .F. ) ;
#204 = CARTESIAN_POINT ( 'NONE',  ( 1.326762908760390423E-13, -4.653657836759941941E-15, 38.00000000000000000 ) ) ;
#205 = CC_DESIGN_APPROVAL ( #58, ( #102 ) ) ;
#206 = DIRECTION ( 'NONE',  ( 3.491481338843133355E-15, -1.224646799147353207E-16, 1.000000000000000000 ) ) ;
#207 = EDGE_LOOP ( 'NONE', ( #51 ) ) ;
#208 = EDGE_CURVE ( 'NONE', #53, #53, #52, .T. ) ;
#209 = CLOSED_SHELL ( 'NONE', ( #50, #124, #160 ) ) ;
#210 = EDGE_LOOP ( 'NONE', ( #165 ) ) ;
#211 = EDGE_LOOP ( 'NONE', ( #57 ) ) ;
#212 = VERTEX_POINT ( 'NONE', #20 ) ;
#213 = ORIENTED_EDGE ( 'NONE', *, *, #15, .T. ) ;
#214 = DESIGN_CONTEXT ( 'detailed design', #100, 'design' ) ;
#215 = APPROVAL ( #147, 'UNSPECIFIED' ) ;
#216 = APPROVAL_PERSON_ORGANIZATION ( #199, #215, #6 ) ;
#217 = APPLICATION_CONTEXT ( 'configuration controlled 3d designs of mechanical parts and assemblies' ) ;
#218 = DIRECTION ( 'NONE',  ( -3.491481338843133355E-15, 1.229791517316362731E-16, -1.000000000000000000 ) ) ;
#219 = DIRECTION ( 'NONE',  ( -3.491481338843133355E-15, 1.229791517316362731E-16, -1.000000000000000000 ) ) ;
#220 = CALENDAR_DATE ( 2021, 28, 10 ) ;
#221 = CIRCLE ( 'NONE', #200, 1.499999999999999778 ) ;
#222 = AXIS2_PLACEMENT_3D ( 'NONE', #204, #186, #144 ) ;
#223 = FACE_OUTER_BOUND ( 'NONE', #83, .T. ) ;
ENDSEC;
END-ISO-10303-21;
