ISO-10303-21;
HEADER;
FILE_DESCRIPTION (( 'STEP AP203' ),
    '1' );
FILE_NAME ('962887.step',
    '2021-10-28T09:22:47',
    ( '' ),
    ( '' ),
    'SwSTEP 2.0',
    'SolidWorks 2019',
    '' );
FILE_SCHEMA (( 'CONFIG_CONTROL_DESIGN' ));
ENDSEC;

DATA;
#1 = DIRECTION ( 'NONE',  ( -3.491481338843133355E-15, 1.224646799147353207E-16, -1.000000000000000000 ) ) ;
#2 = APPLICATION_CONTEXT ( 'configuration controlled 3d designs of mechanical parts and assemblies' ) ;
#3 = EDGE_LOOP ( 'NONE', ( #186 ) ) ;
#4 = EDGE_CURVE ( 'NONE', #94, #94, #31, .T. ) ;
#5 = FACE_BOUND ( 'NONE', #202, .T. ) ;
#6 = DIRECTION ( 'NONE',  ( 0.0000000000000000000, 1.000000000000000000, 0.0000000000000000000 ) ) ;
#7 = CARTESIAN_POINT ( 'NONE',  ( 1.326762908760390423E-13, -4.653657836759941941E-15, 38.00000000000000000 ) ) ;
#8 = APPROVAL_ROLE ( '' ) ;
#9 = FACE_OUTER_BOUND ( 'NONE', #159, .T. ) ;
#10 = CARTESIAN_POINT ( 'NONE',  ( 3.142333204958820020E-14, 0.5349999999999989209, 9.000000000000000000 ) ) ;
#11 = CARTESIAN_POINT ( 'NONE',  ( 3.142333204958820020E-14, -1.106812365584726482E-15, 9.000000000000000000 ) ) ;
#12 = AXIS2_PLACEMENT_3D ( 'NONE', #141, #204, #189 ) ;
#13 = MANIFOLD_SOLID_BREP ( 'Corps-Déplacer/Copier1[2]', #48 ) ;
#14 = DATE_TIME_ROLE ( 'classification_date' ) ;
#15 = CC_DESIGN_PERSON_AND_ORGANIZATION_ASSIGNMENT ( #153, #97, ( #27 ) ) ;
#16 = LOCAL_TIME ( 11, 22, 47.00000000000000000, #39 ) ;
#17 = PLANE ( 'NONE',  #12 ) ;
#18 = ORIENTED_EDGE ( 'NONE', *, *, #185, .F. ) ;
#19 = CARTESIAN_POINT ( 'NONE',  ( 1.326762908760390423E-13, 8.998558695971077224E-33, 38.00000000000000000 ) ) ;
#20 = DESIGN_CONTEXT ( 'detailed design', #2, 'design' ) ;
#21 = EDGE_LOOP ( 'NONE', ( #68 ) ) ;
#22 = DIRECTION ( 'NONE',  ( -3.491481338843133355E-15, 1.229791517316362731E-16, -1.000000000000000000 ) ) ;
#23 =( NAMED_UNIT ( * ) PLANE_ANGLE_UNIT ( ) SI_UNIT ( $, .RADIAN. ) );
#24 = DIRECTION ( 'NONE',  ( 0.0000000000000000000, 1.000000000000000000, 0.0000000000000000000 ) ) ;
#25 = PERSON_AND_ORGANIZATION_ROLE ( 'design_owner' ) ;
#26 = DIRECTION ( 'NONE',  ( -3.491481338843133355E-15, 1.224646799147353207E-16, -1.000000000000000000 ) ) ;
#27 = PRODUCT_DEFINITION_FORMATION_WITH_SPECIFIED_SOURCE ( 'ANY', '', #37, .NOT_KNOWN. ) ;
#28 = DIRECTION ( 'NONE',  ( -3.491481338843133355E-15, 1.229791517316362731E-16, -1.000000000000000000 ) ) ;
#29 = FACE_OUTER_BOUND ( 'NONE', #101, .T. ) ;
#30 = APPLICATION_PROTOCOL_DEFINITION ( 'international standard', 'config_control_design', 1994, #2 ) ;
#31 = CIRCLE ( 'NONE', #134, 0.5350000000000000311 ) ;
#32 = PERSON_AND_ORGANIZATION_ROLE ( 'creator' ) ;
#33 = AXIS2_PLACEMENT_3D ( 'NONE', #19, #1, #55 ) ;
#34 = PERSON_AND_ORGANIZATION ( #71, #171 ) ;
#35 = COORDINATED_UNIVERSAL_TIME_OFFSET ( 1, 0, .AHEAD. ) ;
#36 = ORIENTED_EDGE ( 'NONE', *, *, #51, .T. ) ;
#37 = PRODUCT ( '962887', '962887', '', ( #43 ) ) ;
#38 = DIRECTION ( 'NONE',  ( 4.293794133377662246E-31, 1.000000000000000000, 1.229791517316362731E-16 ) ) ;
#39 = COORDINATED_UNIVERSAL_TIME_OFFSET ( 1, 0, .AHEAD. ) ;
#40 = DIRECTION ( 'NONE',  ( -3.599869054929412785E-31, -1.000000000000000000, -1.013273058397667688E-16 ) ) ;
#41 = VERTEX_POINT ( 'NONE', #104 ) ;
#42 = FACE_OUTER_BOUND ( 'NONE', #73, .T. ) ;
#43 = MECHANICAL_CONTEXT ( 'NONE', #213, 'mechanical' ) ;
#44 = DIRECTION ( 'NONE',  ( -5.135813185032644414E-31, -1.000000000000000000, -1.445602896647343601E-16 ) ) ;
#45 = CALENDAR_DATE ( 2021, 28, 10 ) ;
#46 =( GEOMETRIC_REPRESENTATION_CONTEXT ( 3 ) GLOBAL_UNCERTAINTY_ASSIGNED_CONTEXT ( ( #88 ) ) GLOBAL_UNIT_ASSIGNED_CONTEXT ( ( #109, #23, #197 ) ) REPRESENTATION_CONTEXT ( 'NONE', 'WORKASPACE' ) );
#47 = ADVANCED_FACE ( 'NONE', ( #160, #42 ), #127, .T. ) ;
#48 = CLOSED_SHELL ( 'NONE', ( #112, #47, #62 ) ) ;
#49 = CC_DESIGN_APPROVAL ( #207, ( #27 ) ) ;
#50 = DATE_AND_TIME ( #183, #192 ) ;
#51 = EDGE_CURVE ( 'NONE', #214, #214, #137, .T. ) ;
#52 = CONICAL_SURFACE ( 'NONE', #158, 1.499999999999998668, 0.2617993877991500740 ) ;
#53 = CC_DESIGN_PERSON_AND_ORGANIZATION_ASSIGNMENT ( #79, #32, ( #27 ) ) ;
#54 = ORIENTED_EDGE ( 'NONE', *, *, #201, .F. ) ;
#55 = DIRECTION ( 'NONE',  ( 4.275831445896958607E-31, 1.000000000000000000, 1.224646799147353207E-16 ) ) ;
#56 = FACE_OUTER_BOUND ( 'NONE', #123, .T. ) ;
#57 = ORIENTED_EDGE ( 'NONE', *, *, #4, .F. ) ;
#58 = ADVANCED_FACE ( 'NONE', ( #29, #110 ), #106, .T. ) ;
#59 = DIRECTION ( 'NONE',  ( 0.0000000000000000000, 0.0000000000000000000, 1.000000000000000000 ) ) ;
#60 = PERSON_AND_ORGANIZATION ( #71, #171 ) ;
#61 = PLANE ( 'NONE',  #121 ) ;
#62 = ADVANCED_FACE ( 'NONE', ( #210 ), #99, .T. ) ;
#63 = EDGE_LOOP ( 'NONE', ( #18 ) ) ;
#64 = AXIS2_PLACEMENT_3D ( 'NONE', #90, #103, #44 ) ;
#65 = AXIS2_PLACEMENT_3D ( 'NONE', #72, #124, #142 ) ;
#66 = CLOSED_SHELL ( 'NONE', ( #58, #188, #167, #125, #162 ) ) ;
#67 = APPROVAL_PERSON_ORGANIZATION ( #60, #207, #133 ) ;
#68 = ORIENTED_EDGE ( 'NONE', *, *, #185, .T. ) ;
#69 = ORIENTED_EDGE ( 'NONE', *, *, #201, .T. ) ;
#70 = APPROVAL_PERSON_ORGANIZATION ( #191, #148, #8 ) ;
#71 = PERSON ( 'UNSPECIFIED', 'UNSPECIFIED', 'UNSPECIFIED', ('UNSPECIFIED'), ('UNSPECIFIED'), ('UNSPECIFIED') ) ;
#72 = CARTESIAN_POINT ( 'NONE',  ( 1.326762908760390423E-13, -4.653657836759941941E-15, 38.00000000000000000 ) ) ;
#73 = EDGE_LOOP ( 'NONE', ( #57 ) ) ;
#74 = DIRECTION ( 'NONE',  ( 1.000000000000000000, 0.0000000000000000000, 0.0000000000000000000 ) ) ;
#75 = CARTESIAN_POINT ( 'NONE',  ( 6.798754752466312896E-16, -0.5350000000000000311, 0.1947240753324206430 ) ) ;
#76 = DATE_TIME_ROLE ( 'creation_date' ) ;
#77 = COORDINATED_UNIVERSAL_TIME_OFFSET ( 1, 0, .AHEAD. ) ;
#78 = CARTESIAN_POINT ( 'NONE',  ( 6.798754752466314868E-16, -2.384682155727770467E-17, 0.1947240753324206985 ) ) ;
#79 = PERSON_AND_ORGANIZATION ( #71, #171 ) ;
#80 = APPROVAL_STATUS ( 'not_yet_approved' ) ;
#81 = CC_DESIGN_PERSON_AND_ORGANIZATION_ASSIGNMENT ( #91, #211, ( #120 ) ) ;
#82 = COORDINATED_UNIVERSAL_TIME_OFFSET ( 1, 0, .AHEAD. ) ;
#83 = EDGE_CURVE ( 'NONE', #129, #129, #180, .T. ) ;
#84 = AXIS2_PLACEMENT_3D ( 'NONE', #150, #28, #38 ) ;
#85 = ORIENTED_EDGE ( 'NONE', *, *, #83, .F. ) ;
#86 = LOCAL_TIME ( 11, 22, 47.00000000000000000, #217 ) ;
#87 = DIRECTION ( 'NONE',  ( 0.0000000000000000000, 1.000000000000000000, 0.0000000000000000000 ) ) ;
#88 = UNCERTAINTY_MEASURE_WITH_UNIT (LENGTH_MEASURE( 1.000000000000000082E-05 ), #109, 'distance_accuracy_value', 'NONE');
#89 = PERSON_AND_ORGANIZATION ( #71, #171 ) ;
#90 = CARTESIAN_POINT ( 'NONE',  ( 1.906192921252232855E-15, -6.686024735685322183E-17, 0.5459553513993090634 ) ) ;
#91 = PERSON_AND_ORGANIZATION ( #71, #171 ) ;
#92 = ORIENTED_EDGE ( 'NONE', *, *, #51, .F. ) ;
#93 = LOCAL_TIME ( 11, 22, 47.00000000000000000, #77 ) ;
#94 = VERTEX_POINT ( 'NONE', #75 ) ;
#95 = DATE_AND_TIME ( #149, #93 ) ;
#96 = APPROVAL_ROLE ( '' ) ;
#97 = PERSON_AND_ORGANIZATION_ROLE ( 'design_supplier' ) ;
#98 = DATE_AND_TIME ( #156, #182 ) ;
#99 = CONICAL_SURFACE ( 'NONE', #64, 1.499999999999995559, 1.221730476396026388 ) ;
#100 = CC_DESIGN_DATE_AND_TIME_ASSIGNMENT ( #50, #14, ( #126 ) ) ;
#101 = EDGE_LOOP ( 'NONE', ( #92 ) ) ;
#102 = AXIS2_PLACEMENT_3D ( 'NONE', #161, #22, #87 ) ;
#103 = DIRECTION ( 'NONE',  ( 3.491481338843133355E-15, -1.224646799147353207E-16, 1.000000000000000000 ) ) ;
#104 = CARTESIAN_POINT ( 'NONE',  ( 1.326762908760390423E-13, 1.199999999999995293, 38.00000000000000000 ) ) ;
#105 = VERTEX_POINT ( 'NONE', #111 ) ;
#106 = CYLINDRICAL_SURFACE ( 'NONE', #157, 1.499999999999998224 ) ;
#107 = APPROVAL_STATUS ( 'not_yet_approved' ) ;
#108 = DIRECTION ( 'NONE',  ( -3.491481338843133355E-15, 1.229791517316362731E-16, -1.000000000000000000 ) ) ;
#109 =( LENGTH_UNIT ( ) NAMED_UNIT ( * ) SI_UNIT ( .MILLI., .METRE. ) );
#110 = FACE_OUTER_BOUND ( 'NONE', #223, .T. ) ;
#111 = CARTESIAN_POINT ( 'NONE',  ( 3.142333204958820020E-14, 0.5349999999999989209, 9.000000000000000000 ) ) ;
#112 = ADVANCED_FACE ( 'NONE', ( #9 ), #61, .T. ) ;
#113 = AXIS2_PLACEMENT_3D ( 'NONE', #209, #59, #74 ) ;
#114 = CALENDAR_DATE ( 2021, 28, 10 ) ;
#115 = EDGE_CURVE ( 'NONE', #105, #105, #122, .T. ) ;
#116 = APPROVAL_DATE_TIME ( #220, #117 ) ;
#117 = APPROVAL ( #80, 'UNSPECIFIED' ) ;
#118 = PRODUCT_RELATED_PRODUCT_CATEGORY ( 'detail', '', ( #37 ) ) ;
#119 = EDGE_LOOP ( 'NONE', ( #36 ) ) ;
#120 = PRODUCT_DEFINITION ( 'UNKNOWN', '', #27, #20 ) ;
#121 = AXIS2_PLACEMENT_3D ( 'NONE', #152, #216, #176 ) ;
#122 = CIRCLE ( 'NONE', #102, 0.5350000000000000311 ) ;
#123 = EDGE_LOOP ( 'NONE', ( #54 ) ) ;
#124 = DIRECTION ( 'NONE',  ( -3.491481338843133355E-15, 1.224646799147353207E-16, -1.000000000000000000 ) ) ;
#125 = ADVANCED_FACE ( 'NONE', ( #5, #199 ), #52, .T. ) ;
#126 = SECURITY_CLASSIFICATION ( '', '', #131 ) ;
#127 = CYLINDRICAL_SURFACE ( 'NONE', #84, 0.5350000000000000311 ) ;
#128 = APPROVAL_DATE_TIME ( #95, #148 ) ;
#129 = VERTEX_POINT ( 'NONE', #10 ) ;
#130 = APPROVAL_STATUS ( 'not_yet_approved' ) ;
#131 = SECURITY_CLASSIFICATION_LEVEL ( 'unclassified' ) ;
#132 = ADVANCED_BREP_SHAPE_REPRESENTATION ( '962887', ( #165, #13, #113 ), #46 ) ;
#133 = APPROVAL_ROLE ( '' ) ;
#134 = AXIS2_PLACEMENT_3D ( 'NONE', #78, #26, #40 ) ;
#135 = CC_DESIGN_SECURITY_CLASSIFICATION ( #126, ( #27 ) ) ;
#136 = PERSON_AND_ORGANIZATION_ROLE ( 'classification_officer' ) ;
#137 = CIRCLE ( 'NONE', #221, 1.499999999999998668 ) ;
#138 = PLANE ( 'NONE',  #33 ) ;
#139 = CIRCLE ( 'NONE', #65, 1.199999999999999956 ) ;
#140 = EDGE_LOOP ( 'NONE', ( #166 ) ) ;
#141 = CARTESIAN_POINT ( 'NONE',  ( 3.142333204958820020E-14, 1.124819836996388964E-32, 9.000000000000000000 ) ) ;
#142 = DIRECTION ( 'NONE',  ( 0.0000000000000000000, 1.000000000000000000, 0.0000000000000000000 ) ) ;
#143 = CARTESIAN_POINT ( 'NONE',  ( 1.316288464743861212E-13, -4.616918432785521081E-15, 37.69999999999999574 ) ) ;
#144 = FACE_BOUND ( 'NONE', #21, .T. ) ;
#145 = DIRECTION ( 'NONE',  ( -3.491481338843133355E-15, 1.224646799147353207E-16, -1.000000000000000000 ) ) ;
#146 = DIRECTION ( 'NONE',  ( 0.0000000000000000000, -1.000000000000000000, 0.0000000000000000000 ) ) ;
#147 = DIRECTION ( 'NONE',  ( 4.275831445896958607E-31, 1.000000000000000000, 1.224646799147353207E-16 ) ) ;
#148 = APPROVAL ( #107, 'UNSPECIFIED' ) ;
#149 = CALENDAR_DATE ( 2021, 28, 10 ) ;
#150 = CARTESIAN_POINT ( 'NONE',  ( 0.0000000000000000000, 0.0000000000000000000, 0.0000000000000000000 ) ) ;
#151 = DIRECTION ( 'NONE',  ( 0.0000000000000000000, 1.000000000000000000, 0.0000000000000000000 ) ) ;
#152 = CARTESIAN_POINT ( 'NONE',  ( 3.142333204958820020E-14, 1.124819836996388964E-32, 9.000000000000000000 ) ) ;
#153 = PERSON_AND_ORGANIZATION ( #71, #171 ) ;
#154 = CC_DESIGN_PERSON_AND_ORGANIZATION_ASSIGNMENT ( #89, #25, ( #37 ) ) ;
#155 = APPROVAL_DATE_TIME ( #98, #207 ) ;
#156 = CALENDAR_DATE ( 2021, 28, 10 ) ;
#157 = AXIS2_PLACEMENT_3D ( 'NONE', #178, #212, #147 ) ;
#158 = AXIS2_PLACEMENT_3D ( 'NONE', #200, #181, #146 ) ;
#159 = EDGE_LOOP ( 'NONE', ( #85 ) ) ;
#160 = FACE_OUTER_BOUND ( 'NONE', #140, .T. ) ;
#161 = CARTESIAN_POINT ( 'NONE',  ( 3.142333204958820020E-14, -1.106812365584726482E-15, 9.000000000000000000 ) ) ;
#162 = ADVANCED_FACE ( 'NONE', ( #173 ), #17, .F. ) ;
#163 = CONICAL_SURFACE ( 'NONE', #208, 1.199999999999999956, 0.7853981633974453924 ) ;
#164 = DIRECTION ( 'NONE',  ( 0.0000000000000000000, 1.000000000000000000, 0.0000000000000000000 ) ) ;
#165 = MANIFOLD_SOLID_BREP ( 'Corps-Déplacer/Copier1[1]', #66 ) ;
#166 = ORIENTED_EDGE ( 'NONE', *, *, #83, .T. ) ;
#167 = ADVANCED_FACE ( 'NONE', ( #175 ), #138, .F. ) ;
#168 = DATE_AND_TIME ( #45, #16 ) ;
#169 = CC_DESIGN_APPROVAL ( #148, ( #120 ) ) ;
#170 = PERSON_AND_ORGANIZATION ( #71, #171 ) ;
#171 = ORGANIZATION ( 'UNSPECIFIED', 'UNSPECIFIED', '' ) ;
#172 = CC_DESIGN_DATE_AND_TIME_ASSIGNMENT ( #168, #76, ( #120 ) ) ;
#173 = FACE_OUTER_BOUND ( 'NONE', #203, .T. ) ;
#174 = ORIENTED_EDGE ( 'NONE', *, *, #115, .T. ) ;
#175 = FACE_OUTER_BOUND ( 'NONE', #63, .T. ) ;
#176 = DIRECTION ( 'NONE',  ( -4.275831445896958607E-31, -1.000000000000000000, -1.224646799147353207E-16 ) ) ;
#177 = CARTESIAN_POINT ( 'NONE',  ( 4.399765429857088514E-14, 1.499999999999997113, 12.60142902930395259 ) ) ;
#178 = CARTESIAN_POINT ( 'NONE',  ( 0.0000000000000000000, 0.0000000000000000000, 0.0000000000000000000 ) ) ;
#179 = DIRECTION ( 'NONE',  ( -3.491481338843133355E-15, 1.224646799147353207E-16, -1.000000000000000000 ) ) ;
#180 = CIRCLE ( 'NONE', #218, 0.5350000000000000311 ) ;
#181 = DIRECTION ( 'NONE',  ( 3.491481338843133355E-15, -1.229791517316362731E-16, 1.000000000000000000 ) ) ;
#182 = LOCAL_TIME ( 11, 22, 47.00000000000000000, #35 ) ;
#183 = CALENDAR_DATE ( 2021, 28, 10 ) ;
#184 = SHAPE_DEFINITION_REPRESENTATION ( #187, #132 ) ;
#185 = EDGE_CURVE ( 'NONE', #41, #41, #139, .T. ) ;
#186 = ORIENTED_EDGE ( 'NONE', *, *, #4, .T. ) ;
#187 = PRODUCT_DEFINITION_SHAPE ( 'NONE', 'NONE',  #120 ) ;
#188 = ADVANCED_FACE ( 'NONE', ( #56, #144 ), #163, .T. ) ;
#189 = DIRECTION ( 'NONE',  ( -4.275831445896958607E-31, -1.000000000000000000, -1.224646799147353207E-16 ) ) ;
#190 = CIRCLE ( 'NONE', #215, 1.499999999999999778 ) ;
#191 = PERSON_AND_ORGANIZATION ( #71, #171 ) ;
#192 = LOCAL_TIME ( 11, 22, 47.00000000000000000, #82 ) ;
#193 = CARTESIAN_POINT ( 'NONE',  ( 4.399765429857088514E-14, -1.549713052630216613E-15, 12.60142902930395259 ) ) ;
#194 = CC_DESIGN_PERSON_AND_ORGANIZATION_ASSIGNMENT ( #170, #136, ( #126 ) ) ;
#195 = CARTESIAN_POINT ( 'NONE',  ( 1.316288464743861212E-13, 1.499999999999995337, 37.69999999999999574 ) ) ;
#196 = DIRECTION ( 'NONE',  ( -3.491481338843133355E-15, 1.229791517316362731E-16, -1.000000000000000000 ) ) ;
#197 =( NAMED_UNIT ( * ) SI_UNIT ( $, .STERADIAN. ) SOLID_ANGLE_UNIT ( ) );
#198 = APPLICATION_PROTOCOL_DEFINITION ( 'international standard', 'config_control_design', 1994, #213 ) ;
#199 = FACE_OUTER_BOUND ( 'NONE', #119, .T. ) ;
#200 = CARTESIAN_POINT ( 'NONE',  ( 4.399765429857088514E-14, -1.549713052630216613E-15, 12.60142902930395259 ) ) ;
#201 = EDGE_CURVE ( 'NONE', #206, #206, #190, .T. ) ;
#202 = EDGE_LOOP ( 'NONE', ( #205 ) ) ;
#203 = EDGE_LOOP ( 'NONE', ( #174 ) ) ;
#204 = DIRECTION ( 'NONE',  ( 3.491481338843133355E-15, -1.224646799147353207E-16, 1.000000000000000000 ) ) ;
#205 = ORIENTED_EDGE ( 'NONE', *, *, #115, .F. ) ;
#206 = VERTEX_POINT ( 'NONE', #195 ) ;
#207 = APPROVAL ( #130, 'UNSPECIFIED' ) ;
#208 = AXIS2_PLACEMENT_3D ( 'NONE', #7, #179, #6 ) ;
#209 = CARTESIAN_POINT ( 'NONE',  ( 0.0000000000000000000, 0.0000000000000000000, 0.0000000000000000000 ) ) ;
#210 = FACE_OUTER_BOUND ( 'NONE', #3, .T. ) ;
#211 = PERSON_AND_ORGANIZATION_ROLE ( 'creator' ) ;
#212 = DIRECTION ( 'NONE',  ( -3.491481338843133355E-15, 1.224646799147353207E-16, -1.000000000000000000 ) ) ;
#213 = APPLICATION_CONTEXT ( 'configuration controlled 3d designs of mechanical parts and assemblies' ) ;
#214 = VERTEX_POINT ( 'NONE', #177 ) ;
#215 = AXIS2_PLACEMENT_3D ( 'NONE', #143, #145, #151 ) ;
#216 = DIRECTION ( 'NONE',  ( 3.491481338843133355E-15, -1.224646799147353207E-16, 1.000000000000000000 ) ) ;
#217 = COORDINATED_UNIVERSAL_TIME_OFFSET ( 1, 0, .AHEAD. ) ;
#218 = AXIS2_PLACEMENT_3D ( 'NONE', #11, #108, #164 ) ;
#219 = CC_DESIGN_APPROVAL ( #117, ( #126 ) ) ;
#220 = DATE_AND_TIME ( #114, #86 ) ;
#221 = AXIS2_PLACEMENT_3D ( 'NONE', #193, #196, #24 ) ;
#222 = APPROVAL_PERSON_ORGANIZATION ( #34, #117, #96 ) ;
#223 = EDGE_LOOP ( 'NONE', ( #69 ) ) ;
ENDSEC;
END-ISO-10303-21;
