ISO-10303-21;
HEADER;
FILE_DESCRIPTION (( 'STEP AP203' ),
    '1' );
FILE_NAME ('962886.step',
    '2021-10-28T09:22:47',
    ( '' ),
    ( '' ),
    'SwSTEP 2.0',
    'SolidWorks 2019',
    '' );
FILE_SCHEMA (( 'CONFIG_CONTROL_DESIGN' ));
ENDSEC;

DATA;
#1 = ADVANCED_FACE ( 'NONE', ( #6, #173 ), #203, .T. ) ;
#2 = SHAPE_DEFINITION_REPRESENTATION ( #169, #222 ) ;
#3 = EDGE_LOOP ( 'NONE', ( #174 ) ) ;
#4 = DATE_TIME_ROLE ( 'classification_date' ) ;
#5 = AXIS2_PLACEMENT_3D ( 'NONE', #132, #151, #45 ) ;
#6 = FACE_OUTER_BOUND ( 'NONE', #3, .T. ) ;
#7 = PERSON_AND_ORGANIZATION ( #34, #88 ) ;
#8 = APPROVAL_PERSON_ORGANIZATION ( #89, #56, #41 ) ;
#9 = CARTESIAN_POINT ( 'NONE',  ( 1.316288464743861212E-13, 1.499999999999995337, 37.69999999999999574 ) ) ;
#10 = EDGE_CURVE ( 'NONE', #193, #193, #54, .T. ) ;
#11 = CARTESIAN_POINT ( 'NONE',  ( 4.406280622732209341E-14, -1.552007874842887639E-15, 12.62008928334179458 ) ) ;
#12 = CARTESIAN_POINT ( 'NONE',  ( 6.735214988424573312E-16, -2.362395406608819758E-17, 0.1929042241610896824 ) ) ;
#13 = CARTESIAN_POINT ( 'NONE',  ( 1.326762908760390423E-13, 8.998558695971077224E-33, 38.00000000000000000 ) ) ;
#14 = PERSON_AND_ORGANIZATION_ROLE ( 'design_owner' ) ;
#15 = SECURITY_CLASSIFICATION ( '', '', #204 ) ;
#16 = UNCERTAINTY_MEASURE_WITH_UNIT (LENGTH_MEASURE( 1.000000000000000082E-05 ), #117, 'distance_accuracy_value', 'NONE');
#17 = CALENDAR_DATE ( 2021, 28, 10 ) ;
#18 = DATE_AND_TIME ( #136, #164 ) ;
#19 = APPROVAL_DATE_TIME ( #26, #56 ) ;
#20 = ORIENTED_EDGE ( 'NONE', *, *, #10, .T. ) ;
#21 = AXIS2_PLACEMENT_3D ( 'NONE', #220, #102, #198 ) ;
#22 = EDGE_LOOP ( 'NONE', ( #141 ) ) ;
#23 = APPROVAL_STATUS ( 'not_yet_approved' ) ;
#24 = MANIFOLD_SOLID_BREP ( 'Corps-Déplacer/Copier1[2]', #50 ) ;
#25 = EDGE_CURVE ( 'NONE', #215, #215, #218, .T. ) ;
#26 = DATE_AND_TIME ( #17, #107 ) ;
#27 = CIRCLE ( 'NONE', #180, 1.499999999999998668 ) ;
#28 = FACE_OUTER_BOUND ( 'NONE', #210, .T. ) ;
#29 = DIRECTION ( 'NONE',  ( -3.633830083749501254E-31, -1.000000000000000000, -1.022832238193872008E-16 ) ) ;
#30 = PLANE ( 'NONE',  #5 ) ;
#31 = CONICAL_SURFACE ( 'NONE', #197, 1.499999999999995559, 1.221730476396026388 ) ;
#32 = CC_DESIGN_PERSON_AND_ORGANIZATION_ASSIGNMENT ( #109, #171, ( #15 ) ) ;
#33 = DIRECTION ( 'NONE',  ( -3.491481338843133355E-15, 1.224646799147353207E-16, -1.000000000000000000 ) ) ;
#34 = PERSON ( 'UNSPECIFIED', 'UNSPECIFIED', 'UNSPECIFIED', ('UNSPECIFIED'), ('UNSPECIFIED'), ('UNSPECIFIED') ) ;
#35 = CARTESIAN_POINT ( 'NONE',  ( 3.142333204958820020E-14, -1.106812365584726482E-15, 9.000000000000000000 ) ) ;
#36 = CARTESIAN_POINT ( 'NONE',  ( 3.142333204958820020E-14, 0.5299999999999989164, 9.000000000000000000 ) ) ;
#37 = COORDINATED_UNIVERSAL_TIME_OFFSET ( 1, 0, .AHEAD. ) ;
#38 = PRODUCT_RELATED_PRODUCT_CATEGORY ( 'detail', '', ( #95 ) ) ;
#39 = AXIS2_PLACEMENT_3D ( 'NONE', #144, #213, #59 ) ;
#40 = ORIENTED_EDGE ( 'NONE', *, *, #187, .T. ) ;
#41 = APPROVAL_ROLE ( '' ) ;
#42 = CC_DESIGN_PERSON_AND_ORGANIZATION_ASSIGNMENT ( #100, #133, ( #77 ) ) ;
#43 = EDGE_LOOP ( 'NONE', ( #158 ) ) ;
#44 = APPROVAL_PERSON_ORGANIZATION ( #79, #206, #96 ) ;
#45 = DIRECTION ( 'NONE',  ( -4.275831445896958607E-31, -1.000000000000000000, -1.224646799147353207E-16 ) ) ;
#46 = CIRCLE ( 'NONE', #154, 0.5300000000000000266 ) ;
#47 = DIRECTION ( 'NONE',  ( -3.491481338843133355E-15, 1.224646799147353207E-16, -1.000000000000000000 ) ) ;
#48 = CARTESIAN_POINT ( 'NONE',  ( 3.142333204958820020E-14, 1.124819836996388964E-32, 9.000000000000000000 ) ) ;
#49 = FACE_OUTER_BOUND ( 'NONE', #108, .T. ) ;
#50 = CLOSED_SHELL ( 'NONE', ( #81, #140, #201 ) ) ;
#51 = DIRECTION ( 'NONE',  ( 0.0000000000000000000, 1.000000000000000000, 0.0000000000000000000 ) ) ;
#52 = DIRECTION ( 'NONE',  ( 1.000000000000000000, 0.0000000000000000000, 0.0000000000000000000 ) ) ;
#53 = VERTEX_POINT ( 'NONE', #205 ) ;
#54 = CIRCLE ( 'NONE', #21, 0.5300000000000000266 ) ;
#55 = VERTEX_POINT ( 'NONE', #36 ) ;
#56 = APPROVAL ( #195, 'UNSPECIFIED' ) ;
#57 = AXIS2_PLACEMENT_3D ( 'NONE', #163, #63, #110 ) ;
#58 = APPROVAL_ROLE ( '' ) ;
#59 = DIRECTION ( 'NONE',  ( 0.0000000000000000000, 1.000000000000000000, 0.0000000000000000000 ) ) ;
#60 = ORIENTED_EDGE ( 'NONE', *, *, #192, .T. ) ;
#61 = CALENDAR_DATE ( 2021, 28, 10 ) ;
#62 = APPROVAL ( #159, 'UNSPECIFIED' ) ;
#63 = DIRECTION ( 'NONE',  ( -3.491481338843133355E-15, 1.224646799147353207E-16, -1.000000000000000000 ) ) ;
#64 = DATE_AND_TIME ( #61, #168 ) ;
#65 = DIRECTION ( 'NONE',  ( -3.491481338843133355E-15, 1.224646799147353207E-16, -1.000000000000000000 ) ) ;
#66 = COORDINATED_UNIVERSAL_TIME_OFFSET ( 1, 0, .AHEAD. ) ;
#67 = CLOSED_SHELL ( 'NONE', ( #212, #1, #82, #152, #147 ) ) ;
#68 = DIRECTION ( 'NONE',  ( -3.491481338843133355E-15, 1.229791517316362731E-16, -1.000000000000000000 ) ) ;
#69 = DIRECTION ( 'NONE',  ( 3.491481338843133355E-15, -1.229791517316362731E-16, 1.000000000000000000 ) ) ;
#70 = DIRECTION ( 'NONE',  ( 0.0000000000000000000, 1.000000000000000000, 0.0000000000000000000 ) ) ;
#71 = LOCAL_TIME ( 11, 22, 47.00000000000000000, #194 ) ;
#72 = APPROVAL_DATE_TIME ( #18, #62 ) ;
#73 = ORIENTED_EDGE ( 'NONE', *, *, #182, .F. ) ;
#74 = COORDINATED_UNIVERSAL_TIME_OFFSET ( 1, 0, .AHEAD. ) ;
#75 = CC_DESIGN_SECURITY_CLASSIFICATION ( #15, ( #77 ) ) ;
#76 = COORDINATED_UNIVERSAL_TIME_OFFSET ( 1, 0, .AHEAD. ) ;
#77 = PRODUCT_DEFINITION_FORMATION_WITH_SPECIFIED_SOURCE ( 'ANY', '', #95, .NOT_KNOWN. ) ;
#78 = DIRECTION ( 'NONE',  ( 0.0000000000000000000, 1.000000000000000000, 0.0000000000000000000 ) ) ;
#79 = PERSON_AND_ORGANIZATION ( #34, #88 ) ;
#80 = DIRECTION ( 'NONE',  ( -3.491481338843133355E-15, 1.224646799147353207E-16, -1.000000000000000000 ) ) ;
#81 = ADVANCED_FACE ( 'NONE', ( #28 ), #148, .T. ) ;
#82 = ADVANCED_FACE ( 'NONE', ( #83 ), #86, .F. ) ;
#83 = FACE_OUTER_BOUND ( 'NONE', #43, .T. ) ;
#84 = AXIS2_PLACEMENT_3D ( 'NONE', #183, #80, #146 ) ;
#85 = DIRECTION ( 'NONE',  ( -3.491481338843133355E-15, 1.229791517316362731E-16, -1.000000000000000000 ) ) ;
#86 = PLANE ( 'NONE',  #156 ) ;
#87 = CC_DESIGN_PERSON_AND_ORGANIZATION_ASSIGNMENT ( #185, #14, ( #95 ) ) ;
#88 = ORGANIZATION ( 'UNSPECIFIED', 'UNSPECIFIED', '' ) ;
#89 = PERSON_AND_ORGANIZATION ( #34, #88 ) ;
#90 = PERSON_AND_ORGANIZATION ( #34, #88 ) ;
#91 = ORIENTED_EDGE ( 'NONE', *, *, #192, .F. ) ;
#92 = ORIENTED_EDGE ( 'NONE', *, *, #167, .T. ) ;
#93 = CALENDAR_DATE ( 2021, 28, 10 ) ;
#94 = APPLICATION_CONTEXT ( 'configuration controlled 3d designs of mechanical parts and assemblies' ) ;
#95 = PRODUCT ( '962886', '962886', '', ( #208 ) ) ;
#96 = APPROVAL_ROLE ( '' ) ;
#97 = ORIENTED_EDGE ( 'NONE', *, *, #10, .F. ) ;
#98 = APPROVAL_PERSON_ORGANIZATION ( #7, #62, #58 ) ;
#99 = CARTESIAN_POINT ( 'NONE',  ( 1.906192921252232855E-15, -6.686024735685322183E-17, 0.5459553513993090634 ) ) ;
#100 = PERSON_AND_ORGANIZATION ( #34, #88 ) ;
#101 = CC_DESIGN_PERSON_AND_ORGANIZATION_ASSIGNMENT ( #90, #214, ( #145 ) ) ;
#102 = DIRECTION ( 'NONE',  ( -3.491481338843133355E-15, 1.229791517316362731E-16, -1.000000000000000000 ) ) ;
#103 = MANIFOLD_SOLID_BREP ( 'Corps-Déplacer/Copier1[1]', #67 ) ;
#104 =( GEOMETRIC_REPRESENTATION_CONTEXT ( 3 ) GLOBAL_UNCERTAINTY_ASSIGNED_CONTEXT ( ( #16 ) ) GLOBAL_UNIT_ASSIGNED_CONTEXT ( ( #117, #138, #120 ) ) REPRESENTATION_CONTEXT ( 'NONE', 'WORKASPACE' ) );
#105 = CYLINDRICAL_SURFACE ( 'NONE', #127, 0.5300000000000000266 ) ;
#106 = DIRECTION ( 'NONE',  ( -3.491481338843133355E-15, 1.229791517316362731E-16, -1.000000000000000000 ) ) ;
#107 = LOCAL_TIME ( 11, 22, 47.00000000000000000, #37 ) ;
#108 = EDGE_LOOP ( 'NONE', ( #188 ) ) ;
#109 = PERSON_AND_ORGANIZATION ( #34, #88 ) ;
#110 = DIRECTION ( 'NONE',  ( 0.0000000000000000000, 1.000000000000000000, 0.0000000000000000000 ) ) ;
#111 = DATE_TIME_ROLE ( 'creation_date' ) ;
#112 = CIRCLE ( 'NONE', #122, 0.5300000000000000266 ) ;
#113 = DIRECTION ( 'NONE',  ( 3.491481338843133355E-15, -1.224646799147353207E-16, 1.000000000000000000 ) ) ;
#114 = FACE_OUTER_BOUND ( 'NONE', #191, .T. ) ;
#115 = CYLINDRICAL_SURFACE ( 'NONE', #84, 1.499999999999998224 ) ;
#116 = DIRECTION ( 'NONE',  ( -5.135813185032644414E-31, -1.000000000000000000, -1.445602896647343601E-16 ) ) ;
#117 =( LENGTH_UNIT ( ) NAMED_UNIT ( * ) SI_UNIT ( .MILLI., .METRE. ) );
#118 = PERSON_AND_ORGANIZATION ( #34, #88 ) ;
#119 = AXIS2_PLACEMENT_3D ( 'NONE', #48, #113, #217 ) ;
#120 =( NAMED_UNIT ( * ) SI_UNIT ( $, .STERADIAN. ) SOLID_ANGLE_UNIT ( ) );
#121 = CARTESIAN_POINT ( 'NONE',  ( 0.0000000000000000000, 0.0000000000000000000, 0.0000000000000000000 ) ) ;
#122 = AXIS2_PLACEMENT_3D ( 'NONE', #12, #33, #29 ) ;
#123 = EDGE_LOOP ( 'NONE', ( #20 ) ) ;
#124 = DATE_AND_TIME ( #211, #150 ) ;
#125 = ORIENTED_EDGE ( 'NONE', *, *, #182, .T. ) ;
#126 = EDGE_LOOP ( 'NONE', ( #125 ) ) ;
#127 = AXIS2_PLACEMENT_3D ( 'NONE', #179, #106, #219 ) ;
#128 = DATE_AND_TIME ( #93, #71 ) ;
#129 = FACE_OUTER_BOUND ( 'NONE', #143, .T. ) ;
#130 = CARTESIAN_POINT ( 'NONE',  ( 3.142333204958820020E-14, 0.5299999999999989164, 9.000000000000000000 ) ) ;
#131 = FACE_BOUND ( 'NONE', #189, .T. ) ;
#132 = CARTESIAN_POINT ( 'NONE',  ( 3.142333204958820020E-14, 1.124819836996388964E-32, 9.000000000000000000 ) ) ;
#133 = PERSON_AND_ORGANIZATION_ROLE ( 'creator' ) ;
#134 = FACE_OUTER_BOUND ( 'NONE', #123, .T. ) ;
#135 = CC_DESIGN_APPROVAL ( #56, ( #145 ) ) ;
#136 = CALENDAR_DATE ( 2021, 28, 10 ) ;
#137 = DIRECTION ( 'NONE',  ( 0.0000000000000000000, 0.0000000000000000000, 1.000000000000000000 ) ) ;
#138 =( NAMED_UNIT ( * ) PLANE_ANGLE_UNIT ( ) SI_UNIT ( $, .RADIAN. ) );
#139 = APPLICATION_PROTOCOL_DEFINITION ( 'international standard', 'config_control_design', 1994, #181 ) ;
#140 = ADVANCED_FACE ( 'NONE', ( #129, #114 ), #105, .T. ) ;
#141 = ORIENTED_EDGE ( 'NONE', *, *, #187, .F. ) ;
#142 = CC_DESIGN_APPROVAL ( #62, ( #15 ) ) ;
#143 = EDGE_LOOP ( 'NONE', ( #60 ) ) ;
#144 = CARTESIAN_POINT ( 'NONE',  ( 1.326762908760390423E-13, -4.653657836759941941E-15, 38.00000000000000000 ) ) ;
#145 = PRODUCT_DEFINITION ( 'UNKNOWN', '', #77, #184 ) ;
#146 = DIRECTION ( 'NONE',  ( 4.275831445896958607E-31, 1.000000000000000000, 1.224646799147353207E-16 ) ) ;
#147 = ADVANCED_FACE ( 'NONE', ( #134 ), #30, .F. ) ;
#148 = PLANE ( 'NONE',  #119 ) ;
#149 = FACE_OUTER_BOUND ( 'NONE', #22, .T. ) ;
#150 = LOCAL_TIME ( 11, 22, 47.00000000000000000, #74 ) ;
#151 = DIRECTION ( 'NONE',  ( 3.491481338843133355E-15, -1.224646799147353207E-16, 1.000000000000000000 ) ) ;
#152 = ADVANCED_FACE ( 'NONE', ( #131, #199 ), #221, .T. ) ;
#153 = CARTESIAN_POINT ( 'NONE',  ( 4.406280622732209341E-14, -1.552007874842887639E-15, 12.62008928334179458 ) ) ;
#154 = AXIS2_PLACEMENT_3D ( 'NONE', #35, #68, #70 ) ;
#155 = CC_DESIGN_DATE_AND_TIME_ASSIGNMENT ( #124, #111, ( #145 ) ) ;
#156 = AXIS2_PLACEMENT_3D ( 'NONE', #13, #65, #177 ) ;
#157 = EDGE_LOOP ( 'NONE', ( #92 ) ) ;
#158 = ORIENTED_EDGE ( 'NONE', *, *, #167, .F. ) ;
#159 = APPROVAL_STATUS ( 'not_yet_approved' ) ;
#160 = CC_DESIGN_APPROVAL ( #206, ( #77 ) ) ;
#161 = DIRECTION ( 'NONE',  ( 3.491481338843133355E-15, -1.224646799147353207E-16, 1.000000000000000000 ) ) ;
#162 = CARTESIAN_POINT ( 'NONE',  ( 1.316288464743861212E-13, -4.616918432785521081E-15, 37.69999999999999574 ) ) ;
#163 = CARTESIAN_POINT ( 'NONE',  ( 1.326762908760390423E-13, -4.653657836759941941E-15, 38.00000000000000000 ) ) ;
#164 = LOCAL_TIME ( 11, 22, 47.00000000000000000, #66 ) ;
#165 = VERTEX_POINT ( 'NONE', #166 ) ;
#166 = CARTESIAN_POINT ( 'NONE',  ( 4.406280622732209341E-14, 1.499999999999997113, 12.62008928334179458 ) ) ;
#167 = EDGE_CURVE ( 'NONE', #216, #216, #207, .T. ) ;
#168 = LOCAL_TIME ( 11, 22, 47.00000000000000000, #76 ) ;
#169 = PRODUCT_DEFINITION_SHAPE ( 'NONE', 'NONE',  #145 ) ;
#170 = EDGE_LOOP ( 'NONE', ( #40 ) ) ;
#171 = PERSON_AND_ORGANIZATION_ROLE ( 'classification_officer' ) ;
#172 = AXIS2_PLACEMENT_3D ( 'NONE', #162, #47, #78 ) ;
#173 = FACE_BOUND ( 'NONE', #157, .T. ) ;
#174 = ORIENTED_EDGE ( 'NONE', *, *, #25, .F. ) ;
#175 = FACE_OUTER_BOUND ( 'NONE', #126, .T. ) ;
#176 = APPROVAL_DATE_TIME ( #64, #206 ) ;
#177 = DIRECTION ( 'NONE',  ( 4.275831445896958607E-31, 1.000000000000000000, 1.224646799147353207E-16 ) ) ;
#178 = CC_DESIGN_DATE_AND_TIME_ASSIGNMENT ( #128, #4, ( #15 ) ) ;
#179 = CARTESIAN_POINT ( 'NONE',  ( 0.0000000000000000000, 0.0000000000000000000, 0.0000000000000000000 ) ) ;
#180 = AXIS2_PLACEMENT_3D ( 'NONE', #11, #85, #51 ) ;
#181 = APPLICATION_CONTEXT ( 'configuration controlled 3d designs of mechanical parts and assemblies' ) ;
#182 = EDGE_CURVE ( 'NONE', #53, #53, #112, .T. ) ;
#183 = CARTESIAN_POINT ( 'NONE',  ( 0.0000000000000000000, 0.0000000000000000000, 0.0000000000000000000 ) ) ;
#184 = DESIGN_CONTEXT ( 'detailed design', #94, 'design' ) ;
#185 = PERSON_AND_ORGANIZATION ( #34, #88 ) ;
#186 = AXIS2_PLACEMENT_3D ( 'NONE', #121, #137, #52 ) ;
#187 = EDGE_CURVE ( 'NONE', #165, #165, #27, .T. ) ;
#188 = ORIENTED_EDGE ( 'NONE', *, *, #25, .T. ) ;
#189 = EDGE_LOOP ( 'NONE', ( #97 ) ) ;
#190 = AXIS2_PLACEMENT_3D ( 'NONE', #153, #69, #202 ) ;
#191 = EDGE_LOOP ( 'NONE', ( #73 ) ) ;
#192 = EDGE_CURVE ( 'NONE', #55, #55, #46, .T. ) ;
#193 = VERTEX_POINT ( 'NONE', #130 ) ;
#194 = COORDINATED_UNIVERSAL_TIME_OFFSET ( 1, 0, .AHEAD. ) ;
#195 = APPROVAL_STATUS ( 'not_yet_approved' ) ;
#196 = CARTESIAN_POINT ( 'NONE',  ( 1.326762908760390423E-13, 1.199999999999995293, 38.00000000000000000 ) ) ;
#197 = AXIS2_PLACEMENT_3D ( 'NONE', #99, #161, #116 ) ;
#198 = DIRECTION ( 'NONE',  ( 0.0000000000000000000, 1.000000000000000000, 0.0000000000000000000 ) ) ;
#199 = FACE_OUTER_BOUND ( 'NONE', #170, .T. ) ;
#200 = PERSON_AND_ORGANIZATION_ROLE ( 'design_supplier' ) ;
#201 = ADVANCED_FACE ( 'NONE', ( #175 ), #31, .T. ) ;
#202 = DIRECTION ( 'NONE',  ( 0.0000000000000000000, -1.000000000000000000, 0.0000000000000000000 ) ) ;
#203 = CONICAL_SURFACE ( 'NONE', #39, 1.199999999999999956, 0.7853981633974453924 ) ;
#204 = SECURITY_CLASSIFICATION_LEVEL ( 'unclassified' ) ;
#205 = CARTESIAN_POINT ( 'NONE',  ( 6.735214988424571340E-16, -0.5300000000000000266, 0.1929042241610896269 ) ) ;
#206 = APPROVAL ( #23, 'UNSPECIFIED' ) ;
#207 = CIRCLE ( 'NONE', #57, 1.199999999999999956 ) ;
#208 = MECHANICAL_CONTEXT ( 'NONE', #181, 'mechanical' ) ;
#209 = APPLICATION_PROTOCOL_DEFINITION ( 'international standard', 'config_control_design', 1994, #94 ) ;
#210 = EDGE_LOOP ( 'NONE', ( #91 ) ) ;
#211 = CALENDAR_DATE ( 2021, 28, 10 ) ;
#212 = ADVANCED_FACE ( 'NONE', ( #149, #49 ), #115, .T. ) ;
#213 = DIRECTION ( 'NONE',  ( -3.491481338843133355E-15, 1.224646799147353207E-16, -1.000000000000000000 ) ) ;
#214 = PERSON_AND_ORGANIZATION_ROLE ( 'creator' ) ;
#215 = VERTEX_POINT ( 'NONE', #9 ) ;
#216 = VERTEX_POINT ( 'NONE', #196 ) ;
#217 = DIRECTION ( 'NONE',  ( -4.275831445896958607E-31, -1.000000000000000000, -1.224646799147353207E-16 ) ) ;
#218 = CIRCLE ( 'NONE', #172, 1.499999999999999778 ) ;
#219 = DIRECTION ( 'NONE',  ( 4.293794133377661370E-31, 1.000000000000000000, 1.229791517316362731E-16 ) ) ;
#220 = CARTESIAN_POINT ( 'NONE',  ( 3.142333204958820020E-14, -1.106812365584726482E-15, 9.000000000000000000 ) ) ;
#221 = CONICAL_SURFACE ( 'NONE', #190, 1.499999999999998668, 0.2617993877991501295 ) ;
#222 = ADVANCED_BREP_SHAPE_REPRESENTATION ( '962886', ( #103, #24, #186 ), #104 ) ;
#223 = CC_DESIGN_PERSON_AND_ORGANIZATION_ASSIGNMENT ( #118, #200, ( #77 ) ) ;
ENDSEC;
END-ISO-10303-21;
