ISO-10303-21;
HEADER;
FILE_DESCRIPTION (( 'STEP AP203' ),
    '1' );
FILE_NAME ('962885.step',
    '2021-10-28T09:22:46',
    ( '' ),
    ( '' ),
    'SwSTEP 2.0',
    'SolidWorks 2019',
    '' );
FILE_SCHEMA (( 'CONFIG_CONTROL_DESIGN' ));
ENDSEC;

DATA;
#1 = DIRECTION ( 'NONE',  ( 4.275831445896958607E-31, 1.000000000000000000, 1.224646799147353207E-16 ) ) ;
#2 = PERSON_AND_ORGANIZATION ( #204, #25 ) ;
#3 = APPROVAL_PERSON_ORGANIZATION ( #4, #35, #78 ) ;
#4 = PERSON_AND_ORGANIZATION ( #204, #25 ) ;
#5 = CALENDAR_DATE ( 2021, 28, 10 ) ;
#6 = CARTESIAN_POINT ( 'NONE',  ( 6.671675224382831757E-16, -2.340108657489868434E-17, 0.1910843729897586663 ) ) ;
#7 = PERSON_AND_ORGANIZATION ( #204, #25 ) ;
#8 = CC_DESIGN_APPROVAL ( #64, ( #105 ) ) ;
#9 = CC_DESIGN_APPROVAL ( #35, ( #223 ) ) ;
#10 = EDGE_LOOP ( 'NONE', ( #103 ) ) ;
#11 = EDGE_LOOP ( 'NONE', ( #30 ) ) ;
#12 = AXIS2_PLACEMENT_3D ( 'NONE', #24, #95, #141 ) ;
#13 = APPROVAL_PERSON_ORGANIZATION ( #43, #74, #63 ) ;
#14 = CARTESIAN_POINT ( 'NONE',  ( 1.906192921252232855E-15, -6.686024735685322183E-17, 0.5459553513993090634 ) ) ;
#15 = PLANE ( 'NONE',  #67 ) ;
#16 =( LENGTH_UNIT ( ) NAMED_UNIT ( * ) SI_UNIT ( .MILLI., .METRE. ) );
#17 = FACE_OUTER_BOUND ( 'NONE', #46, .T. ) ;
#18 = DIRECTION ( 'NONE',  ( -3.491481338843133355E-15, 1.224646799147353207E-16, -1.000000000000000000 ) ) ;
#19 = DIRECTION ( 'NONE',  ( -4.275831445896958607E-31, -1.000000000000000000, -1.224646799147353207E-16 ) ) ;
#20 = CC_DESIGN_PERSON_AND_ORGANIZATION_ASSIGNMENT ( #42, #61, ( #105 ) ) ;
#21 =( NAMED_UNIT ( * ) PLANE_ANGLE_UNIT ( ) SI_UNIT ( $, .RADIAN. ) );
#22 = APPROVAL_ROLE ( '' ) ;
#23 = APPROVAL_DATE_TIME ( #148, #74 ) ;
#24 = CARTESIAN_POINT ( 'NONE',  ( 3.142333204958820020E-14, -1.106812365584726482E-15, 9.000000000000000000 ) ) ;
#25 = ORGANIZATION ( 'UNSPECIFIED', 'UNSPECIFIED', '' ) ;
#26 = APPROVAL_STATUS ( 'not_yet_approved' ) ;
#27 = CC_DESIGN_PERSON_AND_ORGANIZATION_ASSIGNMENT ( #2, #196, ( #134 ) ) ;
#28 = DIRECTION ( 'NONE',  ( 1.000000000000000000, 0.0000000000000000000, 0.0000000000000000000 ) ) ;
#29 = VERTEX_POINT ( 'NONE', #37 ) ;
#30 = ORIENTED_EDGE ( 'NONE', *, *, #165, .F. ) ;
#31 = AXIS2_PLACEMENT_3D ( 'NONE', #153, #58, #142 ) ;
#32 = DIRECTION ( 'NONE',  ( 0.0000000000000000000, 1.000000000000000000, 0.0000000000000000000 ) ) ;
#33 = ORIENTED_EDGE ( 'NONE', *, *, #192, .F. ) ;
#34 = DIRECTION ( 'NONE',  ( -3.491481338843133355E-15, 1.229791517316362731E-16, -1.000000000000000000 ) ) ;
#35 = APPROVAL ( #100, 'UNSPECIFIED' ) ;
#36 = PRODUCT ( '962885', '962885', '', ( #112 ) ) ;
#37 = CARTESIAN_POINT ( 'NONE',  ( 1.326762908760390423E-13, 1.199999999999995293, 38.00000000000000000 ) ) ;
#38 = CARTESIAN_POINT ( 'NONE',  ( 3.142333204958820020E-14, -1.106812365584726482E-15, 9.000000000000000000 ) ) ;
#39 = FACE_OUTER_BOUND ( 'NONE', #50, .T. ) ;
#40 = CARTESIAN_POINT ( 'NONE',  ( 0.0000000000000000000, 0.0000000000000000000, 0.0000000000000000000 ) ) ;
#41 = DIRECTION ( 'NONE',  ( 0.0000000000000000000, 0.0000000000000000000, 1.000000000000000000 ) ) ;
#42 = PERSON_AND_ORGANIZATION ( #204, #25 ) ;
#43 = PERSON_AND_ORGANIZATION ( #204, #25 ) ;
#44 = CC_DESIGN_DATE_AND_TIME_ASSIGNMENT ( #211, #155, ( #105 ) ) ;
#45 = LOCAL_TIME ( 11, 22, 46.00000000000000000, #207 ) ;
#46 = EDGE_LOOP ( 'NONE', ( #214 ) ) ;
#47 = APPLICATION_PROTOCOL_DEFINITION ( 'international standard', 'config_control_design', 1994, #189 ) ;
#48 = ORIENTED_EDGE ( 'NONE', *, *, #92, .T. ) ;
#49 = CARTESIAN_POINT ( 'NONE',  ( 1.316288464743861212E-13, -4.616918432785521081E-15, 37.69999999999999574 ) ) ;
#50 = EDGE_LOOP ( 'NONE', ( #48 ) ) ;
#51 = DIRECTION ( 'NONE',  ( 0.0000000000000000000, 1.000000000000000000, 0.0000000000000000000 ) ) ;
#52 = CC_DESIGN_PERSON_AND_ORGANIZATION_ASSIGNMENT ( #7, #190, ( #36 ) ) ;
#53 = AXIS2_PLACEMENT_3D ( 'NONE', #162, #56, #218 ) ;
#54 = DIRECTION ( 'NONE',  ( 0.0000000000000000000, 1.000000000000000000, 0.0000000000000000000 ) ) ;
#55 = DIRECTION ( 'NONE',  ( 0.0000000000000000000, 1.000000000000000000, 0.0000000000000000000 ) ) ;
#56 = DIRECTION ( 'NONE',  ( 3.491481338843133355E-15, -1.229791517316362731E-16, 1.000000000000000000 ) ) ;
#57 = CLOSED_SHELL ( 'NONE', ( #140, #121, #150 ) ) ;
#58 = DIRECTION ( 'NONE',  ( -3.491481338843133355E-15, 1.224646799147353207E-16, -1.000000000000000000 ) ) ;
#59 = APPROVAL_DATE_TIME ( #128, #35 ) ;
#60 = FACE_BOUND ( 'NONE', #10, .T. ) ;
#61 = PERSON_AND_ORGANIZATION_ROLE ( 'creator' ) ;
#62 = FACE_OUTER_BOUND ( 'NONE', #104, .T. ) ;
#63 = APPROVAL_ROLE ( '' ) ;
#64 = APPROVAL ( #173, 'UNSPECIFIED' ) ;
#65 = AXIS2_PLACEMENT_3D ( 'NONE', #6, #77, #143 ) ;
#66 = CC_DESIGN_DATE_AND_TIME_ASSIGNMENT ( #96, #156, ( #223 ) ) ;
#67 = AXIS2_PLACEMENT_3D ( 'NONE', #107, #220, #181 ) ;
#68 = EDGE_LOOP ( 'NONE', ( #33 ) ) ;
#69 = CARTESIAN_POINT ( 'NONE',  ( 0.0000000000000000000, 0.0000000000000000000, 0.0000000000000000000 ) ) ;
#70 = APPROVAL_PERSON_ORGANIZATION ( #208, #64, #22 ) ;
#71 = UNCERTAINTY_MEASURE_WITH_UNIT (LENGTH_MEASURE( 1.000000000000000082E-05 ), #16, 'distance_accuracy_value', 'NONE');
#72 = PLANE ( 'NONE',  #93 ) ;
#73 = CARTESIAN_POINT ( 'NONE',  ( 3.142333204958820020E-14, 0.5249999999999990230, 9.000000000000000000 ) ) ;
#74 = APPROVAL ( #26, 'UNSPECIFIED' ) ;
#75 = COORDINATED_UNIVERSAL_TIME_OFFSET ( 1, 0, .AHEAD. ) ;
#76 = LOCAL_TIME ( 11, 22, 46.00000000000000000, #171 ) ;
#77 = DIRECTION ( 'NONE',  ( -3.491481338843133355E-15, 1.224646799147353207E-16, -1.000000000000000000 ) ) ;
#78 = APPROVAL_ROLE ( '' ) ;
#79 = PERSON_AND_ORGANIZATION ( #204, #25 ) ;
#80 = ORIENTED_EDGE ( 'NONE', *, *, #178, .T. ) ;
#81 = LOCAL_TIME ( 11, 22, 46.00000000000000000, #210 ) ;
#82 = DATE_AND_TIME ( #161, #45 ) ;
#83 = CC_DESIGN_PERSON_AND_ORGANIZATION_ASSIGNMENT ( #114, #172, ( #223 ) ) ;
#84 = ORIENTED_EDGE ( 'NONE', *, *, #120, .T. ) ;
#85 = ORIENTED_EDGE ( 'NONE', *, *, #192, .T. ) ;
#86 = CYLINDRICAL_SURFACE ( 'NONE', #111, 0.5250000000000000222 ) ;
#87 = FACE_OUTER_BOUND ( 'NONE', #117, .T. ) ;
#88 = CIRCLE ( 'NONE', #12, 0.5250000000000000222 ) ;
#89 = CARTESIAN_POINT ( 'NONE',  ( 6.671675224382829785E-16, -0.5250000000000000222, 0.1910843729897586107 ) ) ;
#90 = PLANE ( 'NONE',  #31 ) ;
#91 = DIRECTION ( 'NONE',  ( -3.491481338843133355E-15, 1.229791517316362731E-16, -1.000000000000000000 ) ) ;
#92 = EDGE_CURVE ( 'NONE', #191, #191, #186, .T. ) ;
#93 = AXIS2_PLACEMENT_3D ( 'NONE', #151, #180, #19 ) ;
#94 = APPROVAL_DATE_TIME ( #82, #64 ) ;
#95 = DIRECTION ( 'NONE',  ( -3.491481338843133355E-15, 1.229791517316362731E-16, -1.000000000000000000 ) ) ;
#96 = DATE_AND_TIME ( #5, #76 ) ;
#97 = CIRCLE ( 'NONE', #124, 0.5250000000000000222 ) ;
#98 =( NAMED_UNIT ( * ) SI_UNIT ( $, .STERADIAN. ) SOLID_ANGLE_UNIT ( ) );
#99 = CARTESIAN_POINT ( 'NONE',  ( 1.316288464743861212E-13, 1.499999999999995337, 37.69999999999999574 ) ) ;
#100 = APPROVAL_STATUS ( 'not_yet_approved' ) ;
#101 = ORIENTED_EDGE ( 'NONE', *, *, #165, .T. ) ;
#102 = FACE_OUTER_BOUND ( 'NONE', #174, .T. ) ;
#103 = ORIENTED_EDGE ( 'NONE', *, *, #137, .T. ) ;
#104 = EDGE_LOOP ( 'NONE', ( #159 ) ) ;
#105 = PRODUCT_DEFINITION ( 'UNKNOWN', '', #134, #182 ) ;
#106 = FACE_OUTER_BOUND ( 'NONE', #131, .T. ) ;
#107 = CARTESIAN_POINT ( 'NONE',  ( 3.142333204958820020E-14, 1.124819836996388964E-32, 9.000000000000000000 ) ) ;
#108 = CARTESIAN_POINT ( 'NONE',  ( 1.326762908760390423E-13, -4.653657836759941941E-15, 38.00000000000000000 ) ) ;
#109 = CARTESIAN_POINT ( 'NONE',  ( 3.142333204958820020E-14, 0.5249999999999990230, 9.000000000000000000 ) ) ;
#110 = ADVANCED_FACE ( 'NONE', ( #198, #102 ), #175, .T. ) ;
#111 = AXIS2_PLACEMENT_3D ( 'NONE', #69, #34, #183 ) ;
#112 = MECHANICAL_CONTEXT ( 'NONE', #177, 'mechanical' ) ;
#113 = PERSON_AND_ORGANIZATION_ROLE ( 'design_supplier' ) ;
#114 = PERSON_AND_ORGANIZATION ( #204, #25 ) ;
#115 = VERTEX_POINT ( 'NONE', #158 ) ;
#116 = APPLICATION_PROTOCOL_DEFINITION ( 'international standard', 'config_control_design', 1994, #177 ) ;
#117 = EDGE_LOOP ( 'NONE', ( #85 ) ) ;
#118 = CALENDAR_DATE ( 2021, 28, 10 ) ;
#119 = CIRCLE ( 'NONE', #184, 1.199999999999999956 ) ;
#120 = EDGE_CURVE ( 'NONE', #115, #115, #157, .T. ) ;
#121 = ADVANCED_FACE ( 'NONE', ( #106, #164 ), #86, .T. ) ;
#122 = MANIFOLD_SOLID_BREP ( 'Corps-Déplacer/Copier1[1]', #179 ) ;
#123 = PRODUCT_DEFINITION_SHAPE ( 'NONE', 'NONE',  #105 ) ;
#124 = AXIS2_PLACEMENT_3D ( 'NONE', #38, #222, #209 ) ;
#125 = CARTESIAN_POINT ( 'NONE',  ( 1.326762908760390423E-13, -4.653657836759941941E-15, 38.00000000000000000 ) ) ;
#126 = CARTESIAN_POINT ( 'NONE',  ( 0.0000000000000000000, 0.0000000000000000000, 0.0000000000000000000 ) ) ;
#127 = CALENDAR_DATE ( 2021, 28, 10 ) ;
#128 = DATE_AND_TIME ( #144, #81 ) ;
#129 = CC_DESIGN_PERSON_AND_ORGANIZATION_ASSIGNMENT ( #79, #113, ( #134 ) ) ;
#130 = EDGE_LOOP ( 'NONE', ( #195 ) ) ;
#131 = EDGE_LOOP ( 'NONE', ( #101 ) ) ;
#132 = AXIS2_PLACEMENT_3D ( 'NONE', #166, #91, #51 ) ;
#133 = MANIFOLD_SOLID_BREP ( 'Corps-Déplacer/Copier1[2]', #57 ) ;
#134 = PRODUCT_DEFINITION_FORMATION_WITH_SPECIFIED_SOURCE ( 'ANY', '', #36, .NOT_KNOWN. ) ;
#135 = FACE_OUTER_BOUND ( 'NONE', #212, .T. ) ;
#136 =( GEOMETRIC_REPRESENTATION_CONTEXT ( 3 ) GLOBAL_UNCERTAINTY_ASSIGNED_CONTEXT ( ( #71 ) ) GLOBAL_UNIT_ASSIGNED_CONTEXT ( ( #16, #21, #98 ) ) REPRESENTATION_CONTEXT ( 'NONE', 'WORKASPACE' ) );
#137 = EDGE_CURVE ( 'NONE', #29, #29, #119, .T. ) ;
#138 = FACE_OUTER_BOUND ( 'NONE', #11, .T. ) ;
#139 = VERTEX_POINT ( 'NONE', #89 ) ;
#140 = ADVANCED_FACE ( 'NONE', ( #138 ), #15, .T. ) ;
#141 = DIRECTION ( 'NONE',  ( 0.0000000000000000000, 1.000000000000000000, 0.0000000000000000000 ) ) ;
#142 = DIRECTION ( 'NONE',  ( 4.275831445896958607E-31, 1.000000000000000000, 1.224646799147353207E-16 ) ) ;
#143 = DIRECTION ( 'NONE',  ( -3.668437989309020339E-31, -1.000000000000000000, -1.032573497605242224E-16 ) ) ;
#144 = CALENDAR_DATE ( 2021, 28, 10 ) ;
#145 = ADVANCED_FACE ( 'NONE', ( #135 ), #72, .F. ) ;
#146 = DIRECTION ( 'NONE',  ( -3.491481338843133355E-15, 1.224646799147353207E-16, -1.000000000000000000 ) ) ;
#147 = LOCAL_TIME ( 11, 22, 46.00000000000000000, #170 ) ;
#148 = DATE_AND_TIME ( #127, #176 ) ;
#149 = AXIS2_PLACEMENT_3D ( 'NONE', #126, #41, #28 ) ;
#150 = ADVANCED_FACE ( 'NONE', ( #87 ), #194, .T. ) ;
#151 = CARTESIAN_POINT ( 'NONE',  ( 3.142333204958820020E-14, 1.124819836996388964E-32, 9.000000000000000000 ) ) ;
#152 = VERTEX_POINT ( 'NONE', #73 ) ;
#153 = CARTESIAN_POINT ( 'NONE',  ( 1.326762908760390423E-13, 8.998558695971077224E-33, 38.00000000000000000 ) ) ;
#154 = DIRECTION ( 'NONE',  ( -5.135813185032644414E-31, -1.000000000000000000, -1.445602896647343601E-16 ) ) ;
#155 = DATE_TIME_ROLE ( 'creation_date' ) ;
#156 = DATE_TIME_ROLE ( 'classification_date' ) ;
#157 = CIRCLE ( 'NONE', #132, 1.499999999999998668 ) ;
#158 = CARTESIAN_POINT ( 'NONE',  ( 4.412795815607329537E-14, 1.499999999999997113, 12.63874953737964013 ) ) ;
#159 = ORIENTED_EDGE ( 'NONE', *, *, #120, .F. ) ;
#160 = DIRECTION ( 'NONE',  ( -3.491481338843133355E-15, 1.224646799147353207E-16, -1.000000000000000000 ) ) ;
#161 = CALENDAR_DATE ( 2021, 28, 10 ) ;
#162 = CARTESIAN_POINT ( 'NONE',  ( 4.412795815607329537E-14, -1.554302697055558468E-15, 12.63874953737964013 ) ) ;
#163 = ORIENTED_EDGE ( 'NONE', *, *, #92, .F. ) ;
#164 = FACE_OUTER_BOUND ( 'NONE', #68, .T. ) ;
#165 = EDGE_CURVE ( 'NONE', #201, #201, #97, .T. ) ;
#166 = CARTESIAN_POINT ( 'NONE',  ( 4.412795815607329537E-14, -1.554302697055558468E-15, 12.63874953737964013 ) ) ;
#167 = CONICAL_SURFACE ( 'NONE', #202, 1.199999999999999956, 0.7853981633974453924 ) ;
#168 = CC_DESIGN_APPROVAL ( #74, ( #134 ) ) ;
#169 = DIRECTION ( 'NONE',  ( -3.491481338843133355E-15, 1.224646799147353207E-16, -1.000000000000000000 ) ) ;
#170 = COORDINATED_UNIVERSAL_TIME_OFFSET ( 1, 0, .AHEAD. ) ;
#171 = COORDINATED_UNIVERSAL_TIME_OFFSET ( 1, 0, .AHEAD. ) ;
#172 = PERSON_AND_ORGANIZATION_ROLE ( 'classification_officer' ) ;
#173 = APPROVAL_STATUS ( 'not_yet_approved' ) ;
#174 = EDGE_LOOP ( 'NONE', ( #84 ) ) ;
#175 = CONICAL_SURFACE ( 'NONE', #53, 1.499999999999998668, 0.2617993877991500740 ) ;
#176 = LOCAL_TIME ( 11, 22, 46.00000000000000000, #75 ) ;
#177 = APPLICATION_CONTEXT ( 'configuration controlled 3d designs of mechanical parts and assemblies' ) ;
#178 = EDGE_CURVE ( 'NONE', #152, #152, #88, .T. ) ;
#179 = CLOSED_SHELL ( 'NONE', ( #197, #200, #216, #110, #145 ) ) ;
#180 = DIRECTION ( 'NONE',  ( 3.491481338843133355E-15, -1.224646799147353207E-16, 1.000000000000000000 ) ) ;
#181 = DIRECTION ( 'NONE',  ( -4.275831445896958607E-31, -1.000000000000000000, -1.224646799147353207E-16 ) ) ;
#182 = DESIGN_CONTEXT ( 'detailed design', #189, 'design' ) ;
#183 = DIRECTION ( 'NONE',  ( 4.293794133377663121E-31, 1.000000000000000000, 1.229791517316362731E-16 ) ) ;
#184 = AXIS2_PLACEMENT_3D ( 'NONE', #108, #18, #54 ) ;
#185 = CYLINDRICAL_SURFACE ( 'NONE', #215, 1.499999999999998224 ) ;
#186 = CIRCLE ( 'NONE', #221, 1.499999999999999778 ) ;
#187 = SECURITY_CLASSIFICATION_LEVEL ( 'unclassified' ) ;
#188 = CC_DESIGN_SECURITY_CLASSIFICATION ( #223, ( #134 ) ) ;
#189 = APPLICATION_CONTEXT ( 'configuration controlled 3d designs of mechanical parts and assemblies' ) ;
#190 = PERSON_AND_ORGANIZATION_ROLE ( 'design_owner' ) ;
#191 = VERTEX_POINT ( 'NONE', #99 ) ;
#192 = EDGE_CURVE ( 'NONE', #139, #139, #206, .T. ) ;
#193 = SHAPE_DEFINITION_REPRESENTATION ( #123, #217 ) ;
#194 = CONICAL_SURFACE ( 'NONE', #219, 1.499999999999995559, 1.221730476396026388 ) ;
#195 = ORIENTED_EDGE ( 'NONE', *, *, #178, .F. ) ;
#196 = PERSON_AND_ORGANIZATION_ROLE ( 'creator' ) ;
#197 = ADVANCED_FACE ( 'NONE', ( #62, #39 ), #185, .T. ) ;
#198 = FACE_BOUND ( 'NONE', #130, .T. ) ;
#199 = EDGE_LOOP ( 'NONE', ( #163 ) ) ;
#200 = ADVANCED_FACE ( 'NONE', ( #205, #60 ), #167, .T. ) ;
#201 = VERTEX_POINT ( 'NONE', #109 ) ;
#202 = AXIS2_PLACEMENT_3D ( 'NONE', #125, #160, #55 ) ;
#203 = DIRECTION ( 'NONE',  ( 3.491481338843133355E-15, -1.224646799147353207E-16, 1.000000000000000000 ) ) ;
#204 = PERSON ( 'UNSPECIFIED', 'UNSPECIFIED', 'UNSPECIFIED', ('UNSPECIFIED'), ('UNSPECIFIED'), ('UNSPECIFIED') ) ;
#205 = FACE_OUTER_BOUND ( 'NONE', #199, .T. ) ;
#206 = CIRCLE ( 'NONE', #65, 0.5250000000000000222 ) ;
#207 = COORDINATED_UNIVERSAL_TIME_OFFSET ( 1, 0, .AHEAD. ) ;
#208 = PERSON_AND_ORGANIZATION ( #204, #25 ) ;
#209 = DIRECTION ( 'NONE',  ( 0.0000000000000000000, 1.000000000000000000, 0.0000000000000000000 ) ) ;
#210 = COORDINATED_UNIVERSAL_TIME_OFFSET ( 1, 0, .AHEAD. ) ;
#211 = DATE_AND_TIME ( #118, #147 ) ;
#212 = EDGE_LOOP ( 'NONE', ( #80 ) ) ;
#213 = PRODUCT_RELATED_PRODUCT_CATEGORY ( 'detail', '', ( #36 ) ) ;
#214 = ORIENTED_EDGE ( 'NONE', *, *, #137, .F. ) ;
#215 = AXIS2_PLACEMENT_3D ( 'NONE', #40, #169, #1 ) ;
#216 = ADVANCED_FACE ( 'NONE', ( #17 ), #90, .F. ) ;
#217 = ADVANCED_BREP_SHAPE_REPRESENTATION ( '962885', ( #122, #133, #149 ), #136 ) ;
#218 = DIRECTION ( 'NONE',  ( 0.0000000000000000000, -1.000000000000000000, 0.0000000000000000000 ) ) ;
#219 = AXIS2_PLACEMENT_3D ( 'NONE', #14, #203, #154 ) ;
#220 = DIRECTION ( 'NONE',  ( 3.491481338843133355E-15, -1.224646799147353207E-16, 1.000000000000000000 ) ) ;
#221 = AXIS2_PLACEMENT_3D ( 'NONE', #49, #146, #32 ) ;
#222 = DIRECTION ( 'NONE',  ( -3.491481338843133355E-15, 1.229791517316362731E-16, -1.000000000000000000 ) ) ;
#223 = SECURITY_CLASSIFICATION ( '', '', #187 ) ;
ENDSEC;
END-ISO-10303-21;
