ISO-10303-21;
HEADER;
FILE_DESCRIPTION (( 'STEP AP203' ),
    '1' );
FILE_NAME ('962884.step',
    '2021-10-28T09:22:46',
    ( '' ),
    ( '' ),
    'SwSTEP 2.0',
    'SolidWorks 2019',
    '' );
FILE_SCHEMA (( 'CONFIG_CONTROL_DESIGN' ));
ENDSEC;

DATA;
#1 = ADVANCED_FACE ( 'NONE', ( #90 ), #148, .T. ) ;
#2 = APPROVAL_ROLE ( '' ) ;
#3 = CALENDAR_DATE ( 2021, 28, 10 ) ;
#4 = EDGE_LOOP ( 'NONE', ( #107 ) ) ;
#5 = CIRCLE ( 'NONE', #56, 0.5200000000000000178 ) ;
#6 = DIRECTION ( 'NONE',  ( 0.0000000000000000000, 1.000000000000000000, 0.0000000000000000000 ) ) ;
#7 = DIRECTION ( 'NONE',  ( -3.491481338843133355E-15, 1.229791517316362731E-16, -1.000000000000000000 ) ) ;
#8 = CYLINDRICAL_SURFACE ( 'NONE', #65, 1.499999999999998224 ) ;
#9 = FACE_OUTER_BOUND ( 'NONE', #93, .T. ) ;
#10 = AXIS2_PLACEMENT_3D ( 'NONE', #199, #157, #181 ) ;
#11 = CARTESIAN_POINT ( 'NONE',  ( 4.419311008482450364E-14, -1.556597519268229495E-15, 12.65740979141748568 ) ) ;
#12 = PERSON_AND_ORGANIZATION ( #137, #21 ) ;
#13 =( NAMED_UNIT ( * ) SI_UNIT ( $, .STERADIAN. ) SOLID_ANGLE_UNIT ( ) );
#14 = CLOSED_SHELL ( 'NONE', ( #210, #187, #162, #124, #53 ) ) ;
#15 = AXIS2_PLACEMENT_3D ( 'NONE', #170, #7, #98 ) ;
#16 = PRODUCT_RELATED_PRODUCT_CATEGORY ( 'detail', '', ( #188 ) ) ;
#17 =( GEOMETRIC_REPRESENTATION_CONTEXT ( 3 ) GLOBAL_UNCERTAINTY_ASSIGNED_CONTEXT ( ( #36 ) ) GLOBAL_UNIT_ASSIGNED_CONTEXT ( ( #174, #123, #13 ) ) REPRESENTATION_CONTEXT ( 'NONE', 'WORKASPACE' ) );
#18 = APPROVAL_STATUS ( 'not_yet_approved' ) ;
#19 = CALENDAR_DATE ( 2021, 28, 10 ) ;
#20 = EDGE_LOOP ( 'NONE', ( #129 ) ) ;
#21 = ORGANIZATION ( 'UNSPECIFIED', 'UNSPECIFIED', '' ) ;
#22 = DATE_AND_TIME ( #62, #54 ) ;
#23 = MANIFOLD_SOLID_BREP ( 'Corps-Déplacer/Copier1[2]', #218 ) ;
#24 = APPROVAL_STATUS ( 'not_yet_approved' ) ;
#25 = AXIS2_PLACEMENT_3D ( 'NONE', #208, #55, #126 ) ;
#26 = CARTESIAN_POINT ( 'NONE',  ( 1.316288464743861212E-13, -4.616918432785521081E-15, 37.69999999999999574 ) ) ;
#27 = DIRECTION ( 'NONE',  ( 0.0000000000000000000, 1.000000000000000000, 0.0000000000000000000 ) ) ;
#28 = FACE_OUTER_BOUND ( 'NONE', #40, .T. ) ;
#29 = CC_DESIGN_SECURITY_CLASSIFICATION ( #153, ( #179 ) ) ;
#30 = PLANE ( 'NONE',  #85 ) ;
#31 = FACE_OUTER_BOUND ( 'NONE', #110, .T. ) ;
#32 = PERSON_AND_ORGANIZATION ( #137, #21 ) ;
#33 = AXIS2_PLACEMENT_3D ( 'NONE', #26, #102, #27 ) ;
#34 = PERSON_AND_ORGANIZATION_ROLE ( 'creator' ) ;
#35 = AXIS2_PLACEMENT_3D ( 'NONE', #213, #161, #152 ) ;
#36 = UNCERTAINTY_MEASURE_WITH_UNIT (LENGTH_MEASURE( 1.000000000000000082E-05 ), #174, 'distance_accuracy_value', 'NONE');
#37 = APPROVAL_DATE_TIME ( #130, #47 ) ;
#38 = CC_DESIGN_PERSON_AND_ORGANIZATION_ASSIGNMENT ( #97, #204, ( #179 ) ) ;
#39 = APPROVAL_PERSON_ORGANIZATION ( #32, #81, #207 ) ;
#40 = EDGE_LOOP ( 'NONE', ( #166 ) ) ;
#41 = EDGE_LOOP ( 'NONE', ( #74 ) ) ;
#42 = EDGE_CURVE ( 'NONE', #50, #50, #220, .T. ) ;
#43 = PLANE ( 'NONE',  #198 ) ;
#44 = LOCAL_TIME ( 11, 22, 46.00000000000000000, #87 ) ;
#45 = FACE_BOUND ( 'NONE', #180, .T. ) ;
#46 = DIRECTION ( 'NONE',  ( -3.491481338843133355E-15, 1.229791517316362731E-16, -1.000000000000000000 ) ) ;
#47 = APPROVAL ( #18, 'UNSPECIFIED' ) ;
#48 = FACE_OUTER_BOUND ( 'NONE', #57, .T. ) ;
#49 = APPROVAL_PERSON_ORGANIZATION ( #92, #88, #2 ) ;
#50 = VERTEX_POINT ( 'NONE', #202 ) ;
#51 = APPLICATION_PROTOCOL_DEFINITION ( 'international standard', 'config_control_design', 1994, #106 ) ;
#52 = VERTEX_POINT ( 'NONE', #147 ) ;
#53 = ADVANCED_FACE ( 'NONE', ( #9 ), #43, .F. ) ;
#54 = LOCAL_TIME ( 11, 22, 46.00000000000000000, #89 ) ;
#55 = DIRECTION ( 'NONE',  ( 0.0000000000000000000, 0.0000000000000000000, 1.000000000000000000 ) ) ;
#56 = AXIS2_PLACEMENT_3D ( 'NONE', #169, #84, #194 ) ;
#57 = EDGE_LOOP ( 'NONE', ( #150 ) ) ;
#58 = DATE_AND_TIME ( #3, #223 ) ;
#59 = CC_DESIGN_PERSON_AND_ORGANIZATION_ASSIGNMENT ( #12, #206, ( #188 ) ) ;
#60 = PERSON_AND_ORGANIZATION ( #137, #21 ) ;
#61 = CARTESIAN_POINT ( 'NONE',  ( 4.419311008482450364E-14, 1.499999999999997113, 12.65740979141748568 ) ) ;
#62 = CALENDAR_DATE ( 2021, 28, 10 ) ;
#63 = DIRECTION ( 'NONE',  ( -5.135813185032644414E-31, -1.000000000000000000, -1.445602896647343601E-16 ) ) ;
#64 = DATE_AND_TIME ( #164, #176 ) ;
#65 = AXIS2_PLACEMENT_3D ( 'NONE', #118, #138, #142 ) ;
#66 = FACE_OUTER_BOUND ( 'NONE', #193, .T. ) ;
#67 = DIRECTION ( 'NONE',  ( 0.0000000000000000000, 1.000000000000000000, 0.0000000000000000000 ) ) ;
#68 = CC_DESIGN_PERSON_AND_ORGANIZATION_ASSIGNMENT ( #201, #121, ( #153 ) ) ;
#69 = DIRECTION ( 'NONE',  ( 4.275831445896958607E-31, 1.000000000000000000, 1.224646799147353207E-16 ) ) ;
#70 = DESIGN_CONTEXT ( 'detailed design', #106, 'design' ) ;
#71 = ADVANCED_BREP_SHAPE_REPRESENTATION ( '962884', ( #101, #23, #25 ), #17 ) ;
#72 = ORIENTED_EDGE ( 'NONE', *, *, #155, .F. ) ;
#73 = DATE_TIME_ROLE ( 'creation_date' ) ;
#74 = ORIENTED_EDGE ( 'NONE', *, *, #127, .F. ) ;
#75 = COORDINATED_UNIVERSAL_TIME_OFFSET ( 1, 0, .AHEAD. ) ;
#76 = CC_DESIGN_PERSON_AND_ORGANIZATION_ASSIGNMENT ( #60, #113, ( #179 ) ) ;
#77 = DIRECTION ( 'NONE',  ( 3.491481338843133355E-15, -1.224646799147353207E-16, 1.000000000000000000 ) ) ;
#78 = DATE_AND_TIME ( #19, #44 ) ;
#79 = DIRECTION ( 'NONE',  ( -3.491481338843133355E-15, 1.224646799147353207E-16, -1.000000000000000000 ) ) ;
#80 = DIRECTION ( 'NONE',  ( -4.275831445896958607E-31, -1.000000000000000000, -1.224646799147353207E-16 ) ) ;
#81 = APPROVAL ( #24, 'UNSPECIFIED' ) ;
#82 = APPROVAL_PERSON_ORGANIZATION ( #196, #47, #215 ) ;
#83 = CYLINDRICAL_SURFACE ( 'NONE', #15, 0.5200000000000000178 ) ;
#84 = DIRECTION ( 'NONE',  ( -3.491481338843133355E-15, 1.224646799147353207E-16, -1.000000000000000000 ) ) ;
#85 = AXIS2_PLACEMENT_3D ( 'NONE', #95, #139, #69 ) ;
#86 = CARTESIAN_POINT ( 'NONE',  ( 1.326762908760390423E-13, 1.199999999999995293, 38.00000000000000000 ) ) ;
#87 = COORDINATED_UNIVERSAL_TIME_OFFSET ( 1, 0, .AHEAD. ) ;
#88 = APPROVAL ( #108, 'UNSPECIFIED' ) ;
#89 = COORDINATED_UNIVERSAL_TIME_OFFSET ( 1, 0, .AHEAD. ) ;
#90 = FACE_OUTER_BOUND ( 'NONE', #20, .T. ) ;
#91 = ORIENTED_EDGE ( 'NONE', *, *, #177, .F. ) ;
#92 = PERSON_AND_ORGANIZATION ( #137, #21 ) ;
#93 = EDGE_LOOP ( 'NONE', ( #149 ) ) ;
#94 = APPROVAL_DATE_TIME ( #78, #81 ) ;
#95 = CARTESIAN_POINT ( 'NONE',  ( 1.326762908760390423E-13, 8.998558695971077224E-33, 38.00000000000000000 ) ) ;
#96 = CC_DESIGN_DATE_AND_TIME_ASSIGNMENT ( #58, #134, ( #153 ) ) ;
#97 = PERSON_AND_ORGANIZATION ( #137, #21 ) ;
#98 = DIRECTION ( 'NONE',  ( 4.293794133377663121E-31, 1.000000000000000000, 1.229791517316362977E-16 ) ) ;
#99 = CIRCLE ( 'NONE', #33, 1.499999999999999778 ) ;
#100 = FACE_OUTER_BOUND ( 'NONE', #132, .T. ) ;
#101 = MANIFOLD_SOLID_BREP ( 'Corps-Déplacer/Copier1[1]', #14 ) ;
#102 = DIRECTION ( 'NONE',  ( -3.491481338843133355E-15, 1.224646799147353207E-16, -1.000000000000000000 ) ) ;
#103 = CIRCLE ( 'NONE', #128, 1.199999999999999956 ) ;
#104 = CC_DESIGN_DATE_AND_TIME_ASSIGNMENT ( #22, #73, ( #191 ) ) ;
#105 = AXIS2_PLACEMENT_3D ( 'NONE', #156, #186, #67 ) ;
#106 = APPLICATION_CONTEXT ( 'configuration controlled 3d designs of mechanical parts and assemblies' ) ;
#107 = ORIENTED_EDGE ( 'NONE', *, *, #42, .T. ) ;
#108 = APPROVAL_STATUS ( 'not_yet_approved' ) ;
#109 = CIRCLE ( 'NONE', #122, 1.499999999999998668 ) ;
#110 = EDGE_LOOP ( 'NONE', ( #151 ) ) ;
#111 = ORIENTED_EDGE ( 'NONE', *, *, #190, .F. ) ;
#112 = VERTEX_POINT ( 'NONE', #197 ) ;
#113 = PERSON_AND_ORGANIZATION_ROLE ( 'creator' ) ;
#114 = AXIS2_PLACEMENT_3D ( 'NONE', #209, #160, #168 ) ;
#115 = CC_DESIGN_PERSON_AND_ORGANIZATION_ASSIGNMENT ( #182, #34, ( #191 ) ) ;
#116 = CARTESIAN_POINT ( 'NONE',  ( 3.142333204958820020E-14, 1.124819836996388964E-32, 9.000000000000000000 ) ) ;
#117 = DIRECTION ( 'NONE',  ( 0.0000000000000000000, 1.000000000000000000, 0.0000000000000000000 ) ) ;
#118 = CARTESIAN_POINT ( 'NONE',  ( 0.0000000000000000000, 0.0000000000000000000, 0.0000000000000000000 ) ) ;
#119 = CIRCLE ( 'NONE', #211, 0.5200000000000000178 ) ;
#120 = VERTEX_POINT ( 'NONE', #154 ) ;
#121 = PERSON_AND_ORGANIZATION_ROLE ( 'classification_officer' ) ;
#122 = AXIS2_PLACEMENT_3D ( 'NONE', #11, #46, #117 ) ;
#123 =( NAMED_UNIT ( * ) PLANE_ANGLE_UNIT ( ) SI_UNIT ( $, .RADIAN. ) );
#124 = ADVANCED_FACE ( 'NONE', ( #183, #31 ), #205, .T. ) ;
#125 = APPLICATION_CONTEXT ( 'configuration controlled 3d designs of mechanical parts and assemblies' ) ;
#126 = DIRECTION ( 'NONE',  ( 1.000000000000000000, 0.0000000000000000000, 0.0000000000000000000 ) ) ;
#127 = EDGE_CURVE ( 'NONE', #120, #120, #99, .T. ) ;
#128 = AXIS2_PLACEMENT_3D ( 'NONE', #136, #79, #159 ) ;
#129 = ORIENTED_EDGE ( 'NONE', *, *, #42, .F. ) ;
#130 = DATE_AND_TIME ( #212, #146 ) ;
#131 = EDGE_LOOP ( 'NONE', ( #135 ) ) ;
#132 = EDGE_LOOP ( 'NONE', ( #72 ) ) ;
#133 = CC_DESIGN_APPROVAL ( #88, ( #153 ) ) ;
#134 = DATE_TIME_ROLE ( 'classification_date' ) ;
#135 = ORIENTED_EDGE ( 'NONE', *, *, #127, .T. ) ;
#136 = CARTESIAN_POINT ( 'NONE',  ( 1.326762908760390423E-13, -4.653657836759941941E-15, 38.00000000000000000 ) ) ;
#137 = PERSON ( 'UNSPECIFIED', 'UNSPECIFIED', 'UNSPECIFIED', ('UNSPECIFIED'), ('UNSPECIFIED'), ('UNSPECIFIED') ) ;
#138 = DIRECTION ( 'NONE',  ( -3.491481338843133355E-15, 1.224646799147353207E-16, -1.000000000000000000 ) ) ;
#139 = DIRECTION ( 'NONE',  ( -3.491481338843133355E-15, 1.224646799147353207E-16, -1.000000000000000000 ) ) ;
#140 = DIRECTION ( 'NONE',  ( -3.491481338843133355E-15, 1.229791517316362731E-16, -1.000000000000000000 ) ) ;
#141 = SECURITY_CLASSIFICATION_LEVEL ( 'unclassified' ) ;
#142 = DIRECTION ( 'NONE',  ( 4.275831445896958607E-31, 1.000000000000000000, 1.224646799147353207E-16 ) ) ;
#143 = AXIS2_PLACEMENT_3D ( 'NONE', #200, #77, #63 ) ;
#144 = PRODUCT_DEFINITION_SHAPE ( 'NONE', 'NONE',  #191 ) ;
#145 = APPROVAL_DATE_TIME ( #64, #88 ) ;
#146 = LOCAL_TIME ( 11, 22, 46.00000000000000000, #75 ) ;
#147 = CARTESIAN_POINT ( 'NONE',  ( 3.142333204958820020E-14, 0.5199999999999990186, 9.000000000000000000 ) ) ;
#148 = PLANE ( 'NONE',  #35 ) ;
#149 = ORIENTED_EDGE ( 'NONE', *, *, #190, .T. ) ;
#150 = ORIENTED_EDGE ( 'NONE', *, *, #165, .T. ) ;
#151 = ORIENTED_EDGE ( 'NONE', *, *, #155, .T. ) ;
#152 = DIRECTION ( 'NONE',  ( -4.275831445896958607E-31, -1.000000000000000000, -1.224646799147353207E-16 ) ) ;
#153 = SECURITY_CLASSIFICATION ( '', '', #141 ) ;
#154 = CARTESIAN_POINT ( 'NONE',  ( 1.316288464743861212E-13, 1.499999999999995337, 37.69999999999999574 ) ) ;
#155 = EDGE_CURVE ( 'NONE', #216, #216, #109, .T. ) ;
#156 = CARTESIAN_POINT ( 'NONE',  ( 1.326762908760390423E-13, -4.653657836759941941E-15, 38.00000000000000000 ) ) ;
#157 = DIRECTION ( 'NONE',  ( 3.491481338843133355E-15, -1.229791517316362731E-16, 1.000000000000000000 ) ) ;
#158 = CONICAL_SURFACE ( 'NONE', #143, 1.499999999999995559, 1.221730476396026388 ) ;
#159 = DIRECTION ( 'NONE',  ( 0.0000000000000000000, 1.000000000000000000, 0.0000000000000000000 ) ) ;
#160 = DIRECTION ( 'NONE',  ( -3.491481338843133355E-15, 1.229791517316362731E-16, -1.000000000000000000 ) ) ;
#161 = DIRECTION ( 'NONE',  ( 3.491481338843133355E-15, -1.224646799147353207E-16, 1.000000000000000000 ) ) ;
#162 = ADVANCED_FACE ( 'NONE', ( #66 ), #30, .F. ) ;
#163 = EDGE_LOOP ( 'NONE', ( #111 ) ) ;
#164 = CALENDAR_DATE ( 2021, 28, 10 ) ;
#165 = EDGE_CURVE ( 'NONE', #112, #112, #5, .T. ) ;
#166 = ORIENTED_EDGE ( 'NONE', *, *, #165, .F. ) ;
#167 = CC_DESIGN_APPROVAL ( #81, ( #191 ) ) ;
#168 = DIRECTION ( 'NONE',  ( 0.0000000000000000000, 1.000000000000000000, 0.0000000000000000000 ) ) ;
#169 = CARTESIAN_POINT ( 'NONE',  ( 6.608135460341091188E-16, -2.317821908370917109E-17, 0.1892645218184276223 ) ) ;
#170 = CARTESIAN_POINT ( 'NONE',  ( 0.0000000000000000000, 0.0000000000000000000, 0.0000000000000000000 ) ) ;
#171 = CC_DESIGN_APPROVAL ( #47, ( #179 ) ) ;
#172 = ADVANCED_FACE ( 'NONE', ( #184, #28 ), #83, .T. ) ;
#173 = VERTEX_POINT ( 'NONE', #86 ) ;
#174 =( LENGTH_UNIT ( ) NAMED_UNIT ( * ) SI_UNIT ( .MILLI., .METRE. ) );
#175 = APPLICATION_PROTOCOL_DEFINITION ( 'international standard', 'config_control_design', 1994, #125 ) ;
#176 = LOCAL_TIME ( 11, 22, 46.00000000000000000, #178 ) ;
#177 = EDGE_CURVE ( 'NONE', #173, #173, #103, .T. ) ;
#178 = COORDINATED_UNIVERSAL_TIME_OFFSET ( 1, 0, .AHEAD. ) ;
#179 = PRODUCT_DEFINITION_FORMATION_WITH_SPECIFIED_SOURCE ( 'ANY', '', #188, .NOT_KNOWN. ) ;
#180 = EDGE_LOOP ( 'NONE', ( #214 ) ) ;
#181 = DIRECTION ( 'NONE',  ( 0.0000000000000000000, -1.000000000000000000, 0.0000000000000000000 ) ) ;
#182 = PERSON_AND_ORGANIZATION ( #137, #21 ) ;
#183 = FACE_BOUND ( 'NONE', #163, .T. ) ;
#184 = FACE_OUTER_BOUND ( 'NONE', #4, .T. ) ;
#185 = MECHANICAL_CONTEXT ( 'NONE', #125, 'mechanical' ) ;
#186 = DIRECTION ( 'NONE',  ( -3.491481338843133355E-15, 1.224646799147353207E-16, -1.000000000000000000 ) ) ;
#187 = ADVANCED_FACE ( 'NONE', ( #221, #45 ), #192, .T. ) ;
#188 = PRODUCT ( '962884', '962884', '', ( #185 ) ) ;
#189 = SHAPE_DEFINITION_REPRESENTATION ( #144, #71 ) ;
#190 = EDGE_CURVE ( 'NONE', #52, #52, #119, .T. ) ;
#191 = PRODUCT_DEFINITION ( 'UNKNOWN', '', #179, #70 ) ;
#192 = CONICAL_SURFACE ( 'NONE', #105, 1.199999999999999956, 0.7853981633974453924 ) ;
#193 = EDGE_LOOP ( 'NONE', ( #91 ) ) ;
#194 = DIRECTION ( 'NONE',  ( -3.703711431513915136E-31, -1.000000000000000000, -1.042502088928369658E-16 ) ) ;
#195 = COORDINATED_UNIVERSAL_TIME_OFFSET ( 1, 0, .AHEAD. ) ;
#196 = PERSON_AND_ORGANIZATION ( #137, #21 ) ;
#197 = CARTESIAN_POINT ( 'NONE',  ( 6.608135460341089216E-16, -0.5200000000000000178, 0.1892645218184275668 ) ) ;
#198 = AXIS2_PLACEMENT_3D ( 'NONE', #116, #219, #80 ) ;
#199 = CARTESIAN_POINT ( 'NONE',  ( 4.419311008482450364E-14, -1.556597519268229495E-15, 12.65740979141748568 ) ) ;
#200 = CARTESIAN_POINT ( 'NONE',  ( 1.906192921252232855E-15, -6.686024735685322183E-17, 0.5459553513993090634 ) ) ;
#201 = PERSON_AND_ORGANIZATION ( #137, #21 ) ;
#202 = CARTESIAN_POINT ( 'NONE',  ( 3.142333204958820020E-14, 0.5199999999999990186, 9.000000000000000000 ) ) ;
#203 = ADVANCED_FACE ( 'NONE', ( #48 ), #158, .T. ) ;
#204 = PERSON_AND_ORGANIZATION_ROLE ( 'design_supplier' ) ;
#205 = CONICAL_SURFACE ( 'NONE', #10, 1.499999999999998668, 0.2617993877991500740 ) ;
#206 = PERSON_AND_ORGANIZATION_ROLE ( 'design_owner' ) ;
#207 = APPROVAL_ROLE ( '' ) ;
#208 = CARTESIAN_POINT ( 'NONE',  ( 0.0000000000000000000, 0.0000000000000000000, 0.0000000000000000000 ) ) ;
#209 = CARTESIAN_POINT ( 'NONE',  ( 3.142333204958820020E-14, -1.106812365584726482E-15, 9.000000000000000000 ) ) ;
#210 = ADVANCED_FACE ( 'NONE', ( #100, #222 ), #8, .T. ) ;
#211 = AXIS2_PLACEMENT_3D ( 'NONE', #217, #140, #6 ) ;
#212 = CALENDAR_DATE ( 2021, 28, 10 ) ;
#213 = CARTESIAN_POINT ( 'NONE',  ( 3.142333204958820020E-14, 1.124819836996388964E-32, 9.000000000000000000 ) ) ;
#214 = ORIENTED_EDGE ( 'NONE', *, *, #177, .T. ) ;
#215 = APPROVAL_ROLE ( '' ) ;
#216 = VERTEX_POINT ( 'NONE', #61 ) ;
#217 = CARTESIAN_POINT ( 'NONE',  ( 3.142333204958820020E-14, -1.106812365584726482E-15, 9.000000000000000000 ) ) ;
#218 = CLOSED_SHELL ( 'NONE', ( #1, #172, #203 ) ) ;
#219 = DIRECTION ( 'NONE',  ( 3.491481338843133355E-15, -1.224646799147353207E-16, 1.000000000000000000 ) ) ;
#220 = CIRCLE ( 'NONE', #114, 0.5200000000000000178 ) ;
#221 = FACE_OUTER_BOUND ( 'NONE', #41, .T. ) ;
#222 = FACE_OUTER_BOUND ( 'NONE', #131, .T. ) ;
#223 = LOCAL_TIME ( 11, 22, 46.00000000000000000, #195 ) ;
ENDSEC;
END-ISO-10303-21;
