ISO-10303-21;
HEADER;
FILE_DESCRIPTION (( 'STEP AP203' ),
    '1' );
FILE_NAME ('962883.step',
    '2021-10-28T09:22:45',
    ( '' ),
    ( '' ),
    'SwSTEP 2.0',
    'SolidWorks 2019',
    '' );
FILE_SCHEMA (( 'CONFIG_CONTROL_DESIGN' ));
ENDSEC;

DATA;
#1 = CIRCLE ( 'NONE', #87, 1.499999999999999778 ) ;
#2 = CONICAL_SURFACE ( 'NONE', #131, 1.499999999999995559, 1.221730476396026388 ) ;
#3 = ADVANCED_FACE ( 'NONE', ( #12 ), #151, .F. ) ;
#4 = EDGE_CURVE ( 'NONE', #142, #142, #1, .T. ) ;
#5 = CALENDAR_DATE ( 2021, 28, 10 ) ;
#6 = EDGE_LOOP ( 'NONE', ( #42 ) ) ;
#7 = CC_DESIGN_PERSON_AND_ORGANIZATION_ASSIGNMENT ( #98, #8, ( #112 ) ) ;
#8 = PERSON_AND_ORGANIZATION_ROLE ( 'classification_officer' ) ;
#9 = EDGE_CURVE ( 'NONE', #107, #107, #94, .T. ) ;
#10 = ORIENTED_EDGE ( 'NONE', *, *, #4, .F. ) ;
#11 = FACE_OUTER_BOUND ( 'NONE', #163, .T. ) ;
#12 = FACE_OUTER_BOUND ( 'NONE', #29, .T. ) ;
#13 = CIRCLE ( 'NONE', #196, 1.199999999999999956 ) ;
#14 = FACE_BOUND ( 'NONE', #129, .T. ) ;
#15 = CIRCLE ( 'NONE', #121, 0.5150000000000000133 ) ;
#16 = APPROVAL_PERSON_ORGANIZATION ( #61, #76, #43 ) ;
#17 = DIRECTION ( 'NONE',  ( 4.293794133377662246E-31, 1.000000000000000000, 1.229791517316362731E-16 ) ) ;
#18 = AXIS2_PLACEMENT_3D ( 'NONE', #212, #149, #211 ) ;
#19 = FACE_OUTER_BOUND ( 'NONE', #205, .T. ) ;
#20 = UNCERTAINTY_MEASURE_WITH_UNIT (LENGTH_MEASURE( 1.000000000000000082E-05 ), #222, 'distance_accuracy_value', 'NONE');
#21 = PLANE ( 'NONE',  #162 ) ;
#22 = PERSON_AND_ORGANIZATION ( #218, #67 ) ;
#23 = DATE_AND_TIME ( #5, #46 ) ;
#24 = SHAPE_DEFINITION_REPRESENTATION ( #173, #143 ) ;
#25 = APPROVAL_STATUS ( 'not_yet_approved' ) ;
#26 = CALENDAR_DATE ( 2021, 28, 10 ) ;
#27 = MANIFOLD_SOLID_BREP ( 'Corps-Déplacer/Copier1[2]', #186 ) ;
#28 = APPROVAL_PERSON_ORGANIZATION ( #93, #81, #39 ) ;
#29 = EDGE_LOOP ( 'NONE', ( #190 ) ) ;
#30 = PLANE ( 'NONE',  #63 ) ;
#31 = ORIENTED_EDGE ( 'NONE', *, *, #47, .F. ) ;
#32 = DIRECTION ( 'NONE',  ( -4.275831445896958607E-31, -1.000000000000000000, -1.224646799147353207E-16 ) ) ;
#33 = DIRECTION ( 'NONE',  ( -3.491481338843133355E-15, 1.224646799147353207E-16, -1.000000000000000000 ) ) ;
#34 = AXIS2_PLACEMENT_3D ( 'NONE', #54, #185, #125 ) ;
#35 = DESIGN_CONTEXT ( 'detailed design', #80, 'design' ) ;
#36 = VERTEX_POINT ( 'NONE', #169 ) ;
#37 = PERSON_AND_ORGANIZATION ( #218, #67 ) ;
#38 = CONICAL_SURFACE ( 'NONE', #49, 1.499999999999998668, 0.2617993877991501295 ) ;
#39 = APPROVAL_ROLE ( '' ) ;
#40 = COORDINATED_UNIVERSAL_TIME_OFFSET ( 1, 0, .AHEAD. ) ;
#41 = DATE_AND_TIME ( #26, #97 ) ;
#42 = ORIENTED_EDGE ( 'NONE', *, *, #9, .T. ) ;
#43 = APPROVAL_ROLE ( '' ) ;
#44 = SECURITY_CLASSIFICATION_LEVEL ( 'unclassified' ) ;
#45 = APPLICATION_CONTEXT ( 'configuration controlled 3d designs of mechanical parts and assemblies' ) ;
#46 = LOCAL_TIME ( 11, 22, 45.00000000000000000, #188 ) ;
#47 = EDGE_CURVE ( 'NONE', #155, #155, #175, .T. ) ;
#48 = FACE_OUTER_BOUND ( 'NONE', #159, .T. ) ;
#49 = AXIS2_PLACEMENT_3D ( 'NONE', #133, #117, #164 ) ;
#50 = DIRECTION ( 'NONE',  ( 4.275831445896958607E-31, 1.000000000000000000, 1.224646799147353207E-16 ) ) ;
#51 = EDGE_LOOP ( 'NONE', ( #31 ) ) ;
#52 = DIRECTION ( 'NONE',  ( -3.491481338843133355E-15, 1.224646799147353207E-16, -1.000000000000000000 ) ) ;
#53 = CARTESIAN_POINT ( 'NONE',  ( 6.544595696299350619E-16, -2.295535159251966709E-17, 0.1874446706470966062 ) ) ;
#54 = CARTESIAN_POINT ( 'NONE',  ( 0.0000000000000000000, 0.0000000000000000000, 0.0000000000000000000 ) ) ;
#55 = DATE_AND_TIME ( #141, #101 ) ;
#56 = VERTEX_POINT ( 'NONE', #106 ) ;
#57 = DATE_AND_TIME ( #60, #200 ) ;
#58 = ORIENTED_EDGE ( 'NONE', *, *, #4, .T. ) ;
#59 = ADVANCED_FACE ( 'NONE', ( #152 ), #30, .T. ) ;
#60 = CALENDAR_DATE ( 2021, 28, 10 ) ;
#61 = PERSON_AND_ORGANIZATION ( #218, #67 ) ;
#62 = ADVANCED_FACE ( 'NONE', ( #83, #165 ), #38, .T. ) ;
#63 = AXIS2_PLACEMENT_3D ( 'NONE', #214, #124, #32 ) ;
#64 = CC_DESIGN_SECURITY_CLASSIFICATION ( #112, ( #197 ) ) ;
#65 = CARTESIAN_POINT ( 'NONE',  ( 0.0000000000000000000, 0.0000000000000000000, 0.0000000000000000000 ) ) ;
#66 = ADVANCED_FACE ( 'NONE', ( #11, #216 ), #146, .T. ) ;
#67 = ORGANIZATION ( 'UNSPECIFIED', 'UNSPECIFIED', '' ) ;
#68 = CARTESIAN_POINT ( 'NONE',  ( 0.0000000000000000000, 0.0000000000000000000, 0.0000000000000000000 ) ) ;
#69 = CC_DESIGN_DATE_AND_TIME_ASSIGNMENT ( #41, #208, ( #112 ) ) ;
#70 = DIRECTION ( 'NONE',  ( -3.491481338843133355E-15, 1.224646799147353207E-16, -1.000000000000000000 ) ) ;
#71 = DIRECTION ( 'NONE',  ( -3.491481338843133355E-15, 1.224646799147353207E-16, -1.000000000000000000 ) ) ;
#72 =( NAMED_UNIT ( * ) PLANE_ANGLE_UNIT ( ) SI_UNIT ( $, .RADIAN. ) );
#73 = DIRECTION ( 'NONE',  ( 4.275831445896958607E-31, 1.000000000000000000, 1.224646799147353207E-16 ) ) ;
#74 = CARTESIAN_POINT ( 'NONE',  ( 3.142333204958820020E-14, 0.5149999999999990141, 9.000000000000000000 ) ) ;
#75 = COORDINATED_UNIVERSAL_TIME_OFFSET ( 1, 0, .AHEAD. ) ;
#76 = APPROVAL ( #95, 'UNSPECIFIED' ) ;
#77 = CARTESIAN_POINT ( 'NONE',  ( 1.906192921252232855E-15, -6.686024735685322183E-17, 0.5459553513993090634 ) ) ;
#78 = PERSON_AND_ORGANIZATION ( #218, #67 ) ;
#79 = DIRECTION ( 'NONE',  ( -4.275831445896958607E-31, -1.000000000000000000, -1.224646799147353207E-16 ) ) ;
#80 = APPLICATION_CONTEXT ( 'configuration controlled 3d designs of mechanical parts and assemblies' ) ;
#81 = APPROVAL ( #201, 'UNSPECIFIED' ) ;
#82 = CONICAL_SURFACE ( 'NONE', #209, 1.199999999999999956, 0.7853981633974453924 ) ;
#83 = FACE_BOUND ( 'NONE', #51, .T. ) ;
#84 = DIRECTION ( 'NONE',  ( 0.0000000000000000000, 1.000000000000000000, 0.0000000000000000000 ) ) ;
#85 = PRODUCT_DEFINITION ( 'UNKNOWN', '', #197, #35 ) ;
#86 = DIRECTION ( 'NONE',  ( -3.491481338843133355E-15, 1.229791517316362731E-16, -1.000000000000000000 ) ) ;
#87 = AXIS2_PLACEMENT_3D ( 'NONE', #161, #52, #84 ) ;
#88 = FACE_OUTER_BOUND ( 'NONE', #147, .T. ) ;
#89 = CARTESIAN_POINT ( 'NONE',  ( 1.326762908760390423E-13, 1.199999999999995293, 38.00000000000000000 ) ) ;
#90 = APPROVAL ( #25, 'UNSPECIFIED' ) ;
#91 = PERSON_AND_ORGANIZATION ( #218, #67 ) ;
#92 = PRODUCT_RELATED_PRODUCT_CATEGORY ( 'detail', '', ( #204 ) ) ;
#93 = PERSON_AND_ORGANIZATION ( #218, #67 ) ;
#94 = CIRCLE ( 'NONE', #18, 1.499999999999998668 ) ;
#95 = APPROVAL_STATUS ( 'not_yet_approved' ) ;
#96 = ORIENTED_EDGE ( 'NONE', *, *, #167, .F. ) ;
#97 = LOCAL_TIME ( 11, 22, 45.00000000000000000, #206 ) ;
#98 = PERSON_AND_ORGANIZATION ( #218, #67 ) ;
#99 = CIRCLE ( 'NONE', #150, 0.5150000000000000133 ) ;
#100 = ADVANCED_FACE ( 'NONE', ( #178, #195 ), #179, .T. ) ;
#101 = LOCAL_TIME ( 11, 22, 45.00000000000000000, #75 ) ;
#102 = MANIFOLD_SOLID_BREP ( 'Corps-Déplacer/Copier1[1]', #189 ) ;
#103 = EDGE_LOOP ( 'NONE', ( #58 ) ) ;
#104 = DIRECTION ( 'NONE',  ( 0.0000000000000000000, 1.000000000000000000, 0.0000000000000000000 ) ) ;
#105 = CARTESIAN_POINT ( 'NONE',  ( 4.425826201357571191E-14, 1.499999999999997113, 12.67607004545532767 ) ) ;
#106 = CARTESIAN_POINT ( 'NONE',  ( 6.544595696299348646E-16, -0.5150000000000000133, 0.1874446706470965507 ) ) ;
#107 = VERTEX_POINT ( 'NONE', #105 ) ;
#108 = ADVANCED_FACE ( 'NONE', ( #48, #14 ), #82, .T. ) ;
#109 = CC_DESIGN_PERSON_AND_ORGANIZATION_ASSIGNMENT ( #156, #114, ( #197 ) ) ;
#110 = DATE_AND_TIME ( #223, #168 ) ;
#111 = DIRECTION ( 'NONE',  ( 3.491481338843133355E-15, -1.224646799147353207E-16, 1.000000000000000000 ) ) ;
#112 = SECURITY_CLASSIFICATION ( '', '', #44 ) ;
#113 = ORIENTED_EDGE ( 'NONE', *, *, #167, .T. ) ;
#114 = PERSON_AND_ORGANIZATION_ROLE ( 'design_supplier' ) ;
#115 = APPROVAL_DATE_TIME ( #57, #76 ) ;
#116 = PERSON_AND_ORGANIZATION_ROLE ( 'creator' ) ;
#117 = DIRECTION ( 'NONE',  ( 3.491481338843133355E-15, -1.229791517316362731E-16, 1.000000000000000000 ) ) ;
#118 = EDGE_LOOP ( 'NONE', ( #96 ) ) ;
#119 = DIRECTION ( 'NONE',  ( -3.491481338843133355E-15, 1.224646799147353207E-16, -1.000000000000000000 ) ) ;
#120 = DIRECTION ( 'NONE',  ( -3.491481338843133355E-15, 1.229791517316362731E-16, -1.000000000000000000 ) ) ;
#121 = AXIS2_PLACEMENT_3D ( 'NONE', #194, #120, #193 ) ;
#122 = CC_DESIGN_PERSON_AND_ORGANIZATION_ASSIGNMENT ( #78, #116, ( #197 ) ) ;
#123 = CC_DESIGN_APPROVAL ( #76, ( #112 ) ) ;
#124 = DIRECTION ( 'NONE',  ( 3.491481338843133355E-15, -1.224646799147353207E-16, 1.000000000000000000 ) ) ;
#125 = DIRECTION ( 'NONE',  ( 1.000000000000000000, 0.0000000000000000000, 0.0000000000000000000 ) ) ;
#126 = DATE_TIME_ROLE ( 'creation_date' ) ;
#127 = EDGE_CURVE ( 'NONE', #36, #36, #15, .T. ) ;
#128 = APPROVAL_PERSON_ORGANIZATION ( #22, #90, #144 ) ;
#129 = EDGE_LOOP ( 'NONE', ( #207 ) ) ;
#130 = EDGE_LOOP ( 'NONE', ( #213 ) ) ;
#131 = AXIS2_PLACEMENT_3D ( 'NONE', #77, #111, #202 ) ;
#132 = DIRECTION ( 'NONE',  ( -3.491481338843133355E-15, 1.229791517316362731E-16, -1.000000000000000000 ) ) ;
#133 = CARTESIAN_POINT ( 'NONE',  ( 4.425826201357571191E-14, -1.558892341480900127E-15, 12.67607004545532767 ) ) ;
#134 = ORIENTED_EDGE ( 'NONE', *, *, #127, .T. ) ;
#135 = CARTESIAN_POINT ( 'NONE',  ( 1.326762908760390423E-13, -4.653657836759941941E-15, 38.00000000000000000 ) ) ;
#136 = DIRECTION ( 'NONE',  ( 0.0000000000000000000, 1.000000000000000000, 0.0000000000000000000 ) ) ;
#137 = ORIENTED_EDGE ( 'NONE', *, *, #174, .F. ) ;
#138 = CC_DESIGN_APPROVAL ( #90, ( #197 ) ) ;
#139 = VERTEX_POINT ( 'NONE', #89 ) ;
#140 = MECHANICAL_CONTEXT ( 'NONE', #45, 'mechanical' ) ;
#141 = CALENDAR_DATE ( 2021, 28, 10 ) ;
#142 = VERTEX_POINT ( 'NONE', #219 ) ;
#143 = ADVANCED_BREP_SHAPE_REPRESENTATION ( '962883', ( #102, #27, #34 ), #210 ) ;
#144 = APPROVAL_ROLE ( '' ) ;
#145 = CC_DESIGN_APPROVAL ( #81, ( #85 ) ) ;
#146 = CYLINDRICAL_SURFACE ( 'NONE', #199, 1.499999999999998224 ) ;
#147 = EDGE_LOOP ( 'NONE', ( #113 ) ) ;
#148 = ORIENTED_EDGE ( 'NONE', *, *, #9, .F. ) ;
#149 = DIRECTION ( 'NONE',  ( -3.491481338843133355E-15, 1.229791517316362731E-16, -1.000000000000000000 ) ) ;
#150 = AXIS2_PLACEMENT_3D ( 'NONE', #53, #71, #191 ) ;
#151 = PLANE ( 'NONE',  #172 ) ;
#152 = FACE_OUTER_BOUND ( 'NONE', #130, .T. ) ;
#153 = APPLICATION_PROTOCOL_DEFINITION ( 'international standard', 'config_control_design', 1994, #45 ) ;
#154 = PERSON_AND_ORGANIZATION_ROLE ( 'creator' ) ;
#155 = VERTEX_POINT ( 'NONE', #74 ) ;
#156 = PERSON_AND_ORGANIZATION ( #218, #67 ) ;
#157 = COORDINATED_UNIVERSAL_TIME_OFFSET ( 1, 0, .AHEAD. ) ;
#158 = CC_DESIGN_PERSON_AND_ORGANIZATION_ASSIGNMENT ( #37, #184, ( #204 ) ) ;
#159 = EDGE_LOOP ( 'NONE', ( #10 ) ) ;
#160 = EDGE_LOOP ( 'NONE', ( #134 ) ) ;
#161 = CARTESIAN_POINT ( 'NONE',  ( 1.316288464743861212E-13, -4.616918432785521081E-15, 37.69999999999999574 ) ) ;
#162 = AXIS2_PLACEMENT_3D ( 'NONE', #198, #182, #73 ) ;
#163 = EDGE_LOOP ( 'NONE', ( #148 ) ) ;
#164 = DIRECTION ( 'NONE',  ( 0.0000000000000000000, -1.000000000000000000, 0.0000000000000000000 ) ) ;
#165 = FACE_OUTER_BOUND ( 'NONE', #6, .T. ) ;
#166 = DIRECTION ( 'NONE',  ( 0.0000000000000000000, 1.000000000000000000, 0.0000000000000000000 ) ) ;
#167 = EDGE_CURVE ( 'NONE', #56, #56, #99, .T. ) ;
#168 = LOCAL_TIME ( 11, 22, 45.00000000000000000, #40 ) ;
#169 = CARTESIAN_POINT ( 'NONE',  ( 3.142333204958820020E-14, 0.5149999999999990141, 9.000000000000000000 ) ) ;
#170 = APPROVAL_DATE_TIME ( #110, #81 ) ;
#171 = APPLICATION_PROTOCOL_DEFINITION ( 'international standard', 'config_control_design', 1994, #80 ) ;
#172 = AXIS2_PLACEMENT_3D ( 'NONE', #215, #221, #79 ) ;
#173 = PRODUCT_DEFINITION_SHAPE ( 'NONE', 'NONE',  #85 ) ;
#174 = EDGE_CURVE ( 'NONE', #139, #139, #13, .T. ) ;
#175 = CIRCLE ( 'NONE', #183, 0.5150000000000000133 ) ;
#176 = CC_DESIGN_DATE_AND_TIME_ASSIGNMENT ( #55, #126, ( #85 ) ) ;
#177 = AXIS2_PLACEMENT_3D ( 'NONE', #68, #132, #17 ) ;
#178 = FACE_OUTER_BOUND ( 'NONE', #160, .T. ) ;
#179 = CYLINDRICAL_SURFACE ( 'NONE', #177, 0.5150000000000000133 ) ;
#180 = CARTESIAN_POINT ( 'NONE',  ( 1.326762908760390423E-13, -4.653657836759941941E-15, 38.00000000000000000 ) ) ;
#181 = ADVANCED_FACE ( 'NONE', ( #88 ), #2, .T. ) ;
#182 = DIRECTION ( 'NONE',  ( -3.491481338843133355E-15, 1.224646799147353207E-16, -1.000000000000000000 ) ) ;
#183 = AXIS2_PLACEMENT_3D ( 'NONE', #192, #86, #104 ) ;
#184 = PERSON_AND_ORGANIZATION_ROLE ( 'design_owner' ) ;
#185 = DIRECTION ( 'NONE',  ( 0.0000000000000000000, 0.0000000000000000000, 1.000000000000000000 ) ) ;
#186 = CLOSED_SHELL ( 'NONE', ( #59, #100, #181 ) ) ;
#187 = APPROVAL_DATE_TIME ( #23, #90 ) ;
#188 = COORDINATED_UNIVERSAL_TIME_OFFSET ( 1, 0, .AHEAD. ) ;
#189 = CLOSED_SHELL ( 'NONE', ( #66, #108, #203, #62, #3 ) ) ;
#190 = ORIENTED_EDGE ( 'NONE', *, *, #47, .T. ) ;
#191 = DIRECTION ( 'NONE',  ( -3.739669794926671377E-31, -1.000000000000000000, -1.052623468432528525E-16 ) ) ;
#192 = CARTESIAN_POINT ( 'NONE',  ( 3.142333204958820020E-14, -1.106812365584726482E-15, 9.000000000000000000 ) ) ;
#193 = DIRECTION ( 'NONE',  ( 0.0000000000000000000, 1.000000000000000000, 0.0000000000000000000 ) ) ;
#194 = CARTESIAN_POINT ( 'NONE',  ( 3.142333204958820020E-14, -1.106812365584726482E-15, 9.000000000000000000 ) ) ;
#195 = FACE_OUTER_BOUND ( 'NONE', #118, .T. ) ;
#196 = AXIS2_PLACEMENT_3D ( 'NONE', #180, #33, #166 ) ;
#197 = PRODUCT_DEFINITION_FORMATION_WITH_SPECIFIED_SOURCE ( 'ANY', '', #204, .NOT_KNOWN. ) ;
#198 = CARTESIAN_POINT ( 'NONE',  ( 1.326762908760390423E-13, 8.998558695971077224E-33, 38.00000000000000000 ) ) ;
#199 = AXIS2_PLACEMENT_3D ( 'NONE', #65, #119, #50 ) ;
#200 = LOCAL_TIME ( 11, 22, 45.00000000000000000, #157 ) ;
#201 = APPROVAL_STATUS ( 'not_yet_approved' ) ;
#202 = DIRECTION ( 'NONE',  ( -5.135813185032644414E-31, -1.000000000000000000, -1.445602896647343601E-16 ) ) ;
#203 = ADVANCED_FACE ( 'NONE', ( #19 ), #21, .F. ) ;
#204 = PRODUCT ( '962883', '962883', '', ( #140 ) ) ;
#205 = EDGE_LOOP ( 'NONE', ( #137 ) ) ;
#206 = COORDINATED_UNIVERSAL_TIME_OFFSET ( 1, 0, .AHEAD. ) ;
#207 = ORIENTED_EDGE ( 'NONE', *, *, #174, .T. ) ;
#208 = DATE_TIME_ROLE ( 'classification_date' ) ;
#209 = AXIS2_PLACEMENT_3D ( 'NONE', #135, #70, #136 ) ;
#210 =( GEOMETRIC_REPRESENTATION_CONTEXT ( 3 ) GLOBAL_UNCERTAINTY_ASSIGNED_CONTEXT ( ( #20 ) ) GLOBAL_UNIT_ASSIGNED_CONTEXT ( ( #222, #72, #220 ) ) REPRESENTATION_CONTEXT ( 'NONE', 'WORKASPACE' ) );
#211 = DIRECTION ( 'NONE',  ( 0.0000000000000000000, 1.000000000000000000, 0.0000000000000000000 ) ) ;
#212 = CARTESIAN_POINT ( 'NONE',  ( 4.425826201357571191E-14, -1.558892341480900127E-15, 12.67607004545532767 ) ) ;
#213 = ORIENTED_EDGE ( 'NONE', *, *, #127, .F. ) ;
#214 = CARTESIAN_POINT ( 'NONE',  ( 3.142333204958820020E-14, 1.124819836996388964E-32, 9.000000000000000000 ) ) ;
#215 = CARTESIAN_POINT ( 'NONE',  ( 3.142333204958820020E-14, 1.124819836996388964E-32, 9.000000000000000000 ) ) ;
#216 = FACE_OUTER_BOUND ( 'NONE', #103, .T. ) ;
#217 = CC_DESIGN_PERSON_AND_ORGANIZATION_ASSIGNMENT ( #91, #154, ( #85 ) ) ;
#218 = PERSON ( 'UNSPECIFIED', 'UNSPECIFIED', 'UNSPECIFIED', ('UNSPECIFIED'), ('UNSPECIFIED'), ('UNSPECIFIED') ) ;
#219 = CARTESIAN_POINT ( 'NONE',  ( 1.316288464743861212E-13, 1.499999999999995337, 37.69999999999999574 ) ) ;
#220 =( NAMED_UNIT ( * ) SI_UNIT ( $, .STERADIAN. ) SOLID_ANGLE_UNIT ( ) );
#221 = DIRECTION ( 'NONE',  ( 3.491481338843133355E-15, -1.224646799147353207E-16, 1.000000000000000000 ) ) ;
#222 =( LENGTH_UNIT ( ) NAMED_UNIT ( * ) SI_UNIT ( .MILLI., .METRE. ) );
#223 = CALENDAR_DATE ( 2021, 28, 10 ) ;
ENDSEC;
END-ISO-10303-21;
