ISO-10303-21;
HEADER;
FILE_DESCRIPTION (( 'STEP AP203' ),
    '1' );
FILE_NAME ('962881.step',
    '2021-10-28T09:22:44',
    ( '' ),
    ( '' ),
    'SwSTEP 2.0',
    'SolidWorks 2019',
    '' );
FILE_SCHEMA (( 'CONFIG_CONTROL_DESIGN' ));
ENDSEC;

DATA;
#1 = CARTESIAN_POINT ( 'NONE',  ( 4.438856587107812214E-14, -1.563481985906242179E-15, 12.71339055353101699 ) ) ;
#2 = DIRECTION ( 'NONE',  ( 4.275831445896958607E-31, 1.000000000000000000, 1.224646799147353207E-16 ) ) ;
#3 = PRODUCT_DEFINITION_SHAPE ( 'NONE', 'NONE',  #149 ) ;
#4 = DATE_AND_TIME ( #74, #212 ) ;
#5 = FACE_OUTER_BOUND ( 'NONE', #15, .T. ) ;
#6 = PERSON_AND_ORGANIZATION ( #44, #26 ) ;
#7 = DIRECTION ( 'NONE',  ( -3.491481338843133355E-15, 1.229791517316362731E-16, -1.000000000000000000 ) ) ;
#8 = APPROVAL_DATE_TIME ( #4, #32 ) ;
#9 = DIRECTION ( 'NONE',  ( -3.491481338843133355E-15, 1.224646799147353207E-16, -1.000000000000000000 ) ) ;
#10 = DIRECTION ( 'NONE',  ( -5.135813185032644414E-31, -1.000000000000000000, -1.445602896647343601E-16 ) ) ;
#11 = DIRECTION ( 'NONE',  ( 0.0000000000000000000, 1.000000000000000000, 0.0000000000000000000 ) ) ;
#12 = CC_DESIGN_APPROVAL ( #55, ( #64 ) ) ;
#13 = ORIENTED_EDGE ( 'NONE', *, *, #170, .F. ) ;
#14 = AXIS2_PLACEMENT_3D ( 'NONE', #122, #36, #202 ) ;
#15 = EDGE_LOOP ( 'NONE', ( #181 ) ) ;
#16 = CARTESIAN_POINT ( 'NONE',  ( 0.0000000000000000000, 0.0000000000000000000, 0.0000000000000000000 ) ) ;
#17 = DATE_AND_TIME ( #176, #83 ) ;
#18 = CARTESIAN_POINT ( 'NONE',  ( 0.0000000000000000000, 0.0000000000000000000, 0.0000000000000000000 ) ) ;
#19 = CIRCLE ( 'NONE', #14, 0.5050000000000000044 ) ;
#20 = APPROVAL_ROLE ( '' ) ;
#21 = CARTESIAN_POINT ( 'NONE',  ( 4.438856587107812214E-14, 1.499999999999997113, 12.71339055353101699 ) ) ;
#22 = APPROVAL ( #188, 'UNSPECIFIED' ) ;
#23 = CONICAL_SURFACE ( 'NONE', #164, 1.499999999999998668, 0.2617993877991500740 ) ;
#24 = DIRECTION ( 'NONE',  ( 4.293794133377662246E-31, 1.000000000000000000, 1.229791517316362731E-16 ) ) ;
#25 =( NAMED_UNIT ( * ) PLANE_ANGLE_UNIT ( ) SI_UNIT ( $, .RADIAN. ) );
#26 = ORGANIZATION ( 'UNSPECIFIED', 'UNSPECIFIED', '' ) ;
#27 = EDGE_LOOP ( 'NONE', ( #33 ) ) ;
#28 = CLOSED_SHELL ( 'NONE', ( #183, #50, #94, #80, #103 ) ) ;
#29 = DIRECTION ( 'NONE',  ( -4.275831445896958607E-31, -1.000000000000000000, -1.224646799147353207E-16 ) ) ;
#30 = PERSON_AND_ORGANIZATION ( #44, #26 ) ;
#31 = PRODUCT ( '962881', '962881', '', ( #179 ) ) ;
#32 = APPROVAL ( #86, 'UNSPECIFIED' ) ;
#33 = ORIENTED_EDGE ( 'NONE', *, *, #195, .F. ) ;
#34 = COORDINATED_UNIVERSAL_TIME_OFFSET ( 1, 0, .AHEAD. ) ;
#35 = FACE_OUTER_BOUND ( 'NONE', #148, .T. ) ;
#36 = DIRECTION ( 'NONE',  ( -3.491481338843133355E-15, 1.229791517316362731E-16, -1.000000000000000000 ) ) ;
#37 = SECURITY_CLASSIFICATION_LEVEL ( 'unclassified' ) ;
#38 = FACE_BOUND ( 'NONE', #104, .T. ) ;
#39 = CARTESIAN_POINT ( 'NONE',  ( 3.142333204958820020E-14, 0.5049999999999988942, 9.000000000000000000 ) ) ;
#40 = AXIS2_PLACEMENT_3D ( 'NONE', #158, #72, #187 ) ;
#41 = DIRECTION ( 'NONE',  ( 0.0000000000000000000, 0.0000000000000000000, 1.000000000000000000 ) ) ;
#42 = CC_DESIGN_DATE_AND_TIME_ASSIGNMENT ( #17, #120, ( #149 ) ) ;
#43 = AXIS2_PLACEMENT_3D ( 'NONE', #16, #151, #49 ) ;
#44 = PERSON ( 'UNSPECIFIED', 'UNSPECIFIED', 'UNSPECIFIED', ('UNSPECIFIED'), ('UNSPECIFIED'), ('UNSPECIFIED') ) ;
#45 = DESIGN_CONTEXT ( 'detailed design', #112, 'design' ) ;
#46 = CARTESIAN_POINT ( 'NONE',  ( 1.326762908760390423E-13, 8.998558695971077224E-33, 38.00000000000000000 ) ) ;
#47 = ORIENTED_EDGE ( 'NONE', *, *, #138, .T. ) ;
#48 = CALENDAR_DATE ( 2021, 28, 10 ) ;
#49 = DIRECTION ( 'NONE',  ( 4.275831445896958607E-31, 1.000000000000000000, 1.224646799147353207E-16 ) ) ;
#50 = ADVANCED_FACE ( 'NONE', ( #5, #182 ), #219, .T. ) ;
#51 = FACE_OUTER_BOUND ( 'NONE', #116, .T. ) ;
#52 = APPROVAL_DATE_TIME ( #208, #55 ) ;
#53 = APPROVAL_DATE_TIME ( #209, #22 ) ;
#54 = AXIS2_PLACEMENT_3D ( 'NONE', #95, #177, #11 ) ;
#55 = APPROVAL ( #101, 'UNSPECIFIED' ) ;
#56 = PERSON_AND_ORGANIZATION ( #44, #26 ) ;
#57 = PERSON_AND_ORGANIZATION_ROLE ( 'design_owner' ) ;
#58 = VERTEX_POINT ( 'NONE', #21 ) ;
#59 = CARTESIAN_POINT ( 'NONE',  ( 3.142333204958820020E-14, -1.106812365584726482E-15, 9.000000000000000000 ) ) ;
#60 = ADVANCED_BREP_SHAPE_REPRESENTATION ( '962881', ( #160, #92, #125 ), #129 ) ;
#61 = VERTEX_POINT ( 'NONE', #76 ) ;
#62 = CIRCLE ( 'NONE', #54, 1.499999999999999778 ) ;
#63 = AXIS2_PLACEMENT_3D ( 'NONE', #189, #9, #218 ) ;
#64 = SECURITY_CLASSIFICATION ( '', '', #37 ) ;
#65 = CARTESIAN_POINT ( 'NONE',  ( 3.142333204958820020E-14, 1.124819836996388964E-32, 9.000000000000000000 ) ) ;
#66 = PLANE ( 'NONE',  #163 ) ;
#67 = EDGE_LOOP ( 'NONE', ( #100 ) ) ;
#68 = DATE_TIME_ROLE ( 'classification_date' ) ;
#69 = AXIS2_PLACEMENT_3D ( 'NONE', #65, #84, #29 ) ;
#70 = DIRECTION ( 'NONE',  ( 3.491481338843133355E-15, -1.224646799147353207E-16, 1.000000000000000000 ) ) ;
#71 = PERSON_AND_ORGANIZATION_ROLE ( 'design_supplier' ) ;
#72 = DIRECTION ( 'NONE',  ( -3.491481338843133355E-15, 1.224646799147353207E-16, -1.000000000000000000 ) ) ;
#73 = DIRECTION ( 'NONE',  ( 3.491481338843133355E-15, -1.229791517316362731E-16, 1.000000000000000000 ) ) ;
#74 = CALENDAR_DATE ( 2021, 28, 10 ) ;
#75 = DIRECTION ( 'NONE',  ( 1.000000000000000000, 0.0000000000000000000, 0.0000000000000000000 ) ) ;
#76 = CARTESIAN_POINT ( 'NONE',  ( 3.142333204958820020E-14, 0.5049999999999988942, 9.000000000000000000 ) ) ;
#77 = CC_DESIGN_PERSON_AND_ORGANIZATION_ASSIGNMENT ( #105, #153, ( #165 ) ) ;
#78 = EDGE_CURVE ( 'NONE', #61, #61, #222, .T. ) ;
#79 = LOCAL_TIME ( 11, 22, 44.00000000000000000, #205 ) ;
#80 = ADVANCED_FACE ( 'NONE', ( #38, #51 ), #23, .T. ) ;
#81 = ORIENTED_EDGE ( 'NONE', *, *, #170, .T. ) ;
#82 = AXIS2_PLACEMENT_3D ( 'NONE', #215, #96, #10 ) ;
#83 = LOCAL_TIME ( 11, 22, 44.00000000000000000, #121 ) ;
#84 = DIRECTION ( 'NONE',  ( 3.491481338843133355E-15, -1.224646799147353207E-16, 1.000000000000000000 ) ) ;
#85 = DIRECTION ( 'NONE',  ( -3.491481338843133355E-15, 1.224646799147353207E-16, -1.000000000000000000 ) ) ;
#86 = APPROVAL_STATUS ( 'not_yet_approved' ) ;
#87 = CARTESIAN_POINT ( 'NONE',  ( 3.142333204958820020E-14, 1.124819836996388964E-32, 9.000000000000000000 ) ) ;
#88 = EDGE_LOOP ( 'NONE', ( #167 ) ) ;
#89 = DIRECTION ( 'NONE',  ( -3.491481338843133355E-15, 1.229791517316362731E-16, -1.000000000000000000 ) ) ;
#90 = CC_DESIGN_APPROVAL ( #22, ( #165 ) ) ;
#91 = FACE_OUTER_BOUND ( 'NONE', #223, .T. ) ;
#92 = MANIFOLD_SOLID_BREP ( 'Corps-Déplacer/Copier1[2]', #217 ) ;
#93 = CC_DESIGN_PERSON_AND_ORGANIZATION_ASSIGNMENT ( #214, #57, ( #31 ) ) ;
#94 = ADVANCED_FACE ( 'NONE', ( #184 ), #66, .F. ) ;
#95 = CARTESIAN_POINT ( 'NONE',  ( 1.316288464743861212E-13, -4.616918432785521081E-15, 37.69999999999999574 ) ) ;
#96 = DIRECTION ( 'NONE',  ( 3.491481338843133355E-15, -1.224646799147353207E-16, 1.000000000000000000 ) ) ;
#97 = AXIS2_PLACEMENT_3D ( 'NONE', #1, #206, #109 ) ;
#98 = PRODUCT_RELATED_PRODUCT_CATEGORY ( 'detail', '', ( #31 ) ) ;
#99 = EDGE_LOOP ( 'NONE', ( #81 ) ) ;
#100 = ORIENTED_EDGE ( 'NONE', *, *, #195, .T. ) ;
#101 = APPROVAL_STATUS ( 'not_yet_approved' ) ;
#102 = FACE_OUTER_BOUND ( 'NONE', #198, .T. ) ;
#103 = ADVANCED_FACE ( 'NONE', ( #132 ), #199, .F. ) ;
#104 = EDGE_LOOP ( 'NONE', ( #13 ) ) ;
#105 = PERSON_AND_ORGANIZATION ( #44, #26 ) ;
#106 = FACE_OUTER_BOUND ( 'NONE', #152, .T. ) ;
#107 = SHAPE_DEFINITION_REPRESENTATION ( #3, #60 ) ;
#108 = CIRCLE ( 'NONE', #63, 0.5050000000000000044 ) ;
#109 = DIRECTION ( 'NONE',  ( 0.0000000000000000000, 1.000000000000000000, 0.0000000000000000000 ) ) ;
#110 = VERTEX_POINT ( 'NONE', #190 ) ;
#111 = CARTESIAN_POINT ( 'NONE',  ( 4.438856587107812214E-14, -1.563481985906242179E-15, 12.71339055353101699 ) ) ;
#112 = APPLICATION_CONTEXT ( 'configuration controlled 3d designs of mechanical parts and assemblies' ) ;
#113 = LOCAL_TIME ( 11, 22, 44.00000000000000000, #201 ) ;
#114 = CIRCLE ( 'NONE', #97, 1.499999999999998668 ) ;
#115 = CARTESIAN_POINT ( 'NONE',  ( 1.326762908760390423E-13, -4.653657836759941941E-15, 38.00000000000000000 ) ) ;
#116 = EDGE_LOOP ( 'NONE', ( #47 ) ) ;
#117 = EDGE_LOOP ( 'NONE', ( #130 ) ) ;
#118 = PLANE ( 'NONE',  #69 ) ;
#119 = AXIS2_PLACEMENT_3D ( 'NONE', #115, #207, #142 ) ;
#120 = DATE_TIME_ROLE ( 'creation_date' ) ;
#121 = COORDINATED_UNIVERSAL_TIME_OFFSET ( 1, 0, .AHEAD. ) ;
#122 = CARTESIAN_POINT ( 'NONE',  ( 3.142333204958820020E-14, -1.106812365584726482E-15, 9.000000000000000000 ) ) ;
#123 = PERSON_AND_ORGANIZATION_ROLE ( 'classification_officer' ) ;
#124 = COORDINATED_UNIVERSAL_TIME_OFFSET ( 1, 0, .AHEAD. ) ;
#125 = AXIS2_PLACEMENT_3D ( 'NONE', #192, #41, #75 ) ;
#126 = CARTESIAN_POINT ( 'NONE',  ( 6.417516168215864550E-16, -0.5050000000000000044, 0.1838049683044344351 ) ) ;
#127 = VERTEX_POINT ( 'NONE', #126 ) ;
#128 =( NAMED_UNIT ( * ) SI_UNIT ( $, .STERADIAN. ) SOLID_ANGLE_UNIT ( ) );
#129 =( GEOMETRIC_REPRESENTATION_CONTEXT ( 3 ) GLOBAL_UNCERTAINTY_ASSIGNED_CONTEXT ( ( #194 ) ) GLOBAL_UNIT_ASSIGNED_CONTEXT ( ( #191, #25, #128 ) ) REPRESENTATION_CONTEXT ( 'NONE', 'WORKASPACE' ) );
#130 = ORIENTED_EDGE ( 'NONE', *, *, #78, .F. ) ;
#131 = CALENDAR_DATE ( 2021, 28, 10 ) ;
#132 = FACE_OUTER_BOUND ( 'NONE', #99, .T. ) ;
#133 = AXIS2_PLACEMENT_3D ( 'NONE', #59, #7, #211 ) ;
#134 = APPROVAL_ROLE ( '' ) ;
#135 = PERSON_AND_ORGANIZATION ( #44, #26 ) ;
#136 = CC_DESIGN_PERSON_AND_ORGANIZATION_ASSIGNMENT ( #135, #123, ( #64 ) ) ;
#137 = CYLINDRICAL_SURFACE ( 'NONE', #196, 0.5050000000000000044 ) ;
#138 = EDGE_CURVE ( 'NONE', #58, #58, #114, .T. ) ;
#139 = PERSON_AND_ORGANIZATION_ROLE ( 'creator' ) ;
#140 = CIRCLE ( 'NONE', #40, 1.199999999999999956 ) ;
#141 = VERTEX_POINT ( 'NONE', #39 ) ;
#142 = DIRECTION ( 'NONE',  ( 0.0000000000000000000, 1.000000000000000000, 0.0000000000000000000 ) ) ;
#143 = FACE_OUTER_BOUND ( 'NONE', #88, .T. ) ;
#144 = ADVANCED_FACE ( 'NONE', ( #155 ), #118, .T. ) ;
#145 = AXIS2_PLACEMENT_3D ( 'NONE', #87, #70, #175 ) ;
#146 = ORIENTED_EDGE ( 'NONE', *, *, #138, .F. ) ;
#147 = APPROVAL_PERSON_ORGANIZATION ( #172, #32, #150 ) ;
#148 = EDGE_LOOP ( 'NONE', ( #166 ) ) ;
#149 = PRODUCT_DEFINITION ( 'UNKNOWN', '', #165, #45 ) ;
#150 = APPROVAL_ROLE ( '' ) ;
#151 = DIRECTION ( 'NONE',  ( -3.491481338843133355E-15, 1.224646799147353207E-16, -1.000000000000000000 ) ) ;
#152 = EDGE_LOOP ( 'NONE', ( #204 ) ) ;
#153 = PERSON_AND_ORGANIZATION_ROLE ( 'creator' ) ;
#154 = APPROVAL_PERSON_ORGANIZATION ( #56, #22, #20 ) ;
#155 = FACE_OUTER_BOUND ( 'NONE', #117, .T. ) ;
#156 = CC_DESIGN_SECURITY_CLASSIFICATION ( #64, ( #165 ) ) ;
#157 = APPLICATION_PROTOCOL_DEFINITION ( 'international standard', 'config_control_design', 1994, #112 ) ;
#158 = CARTESIAN_POINT ( 'NONE',  ( 1.326762908760390423E-13, -4.653657836759941941E-15, 38.00000000000000000 ) ) ;
#159 = CARTESIAN_POINT ( 'NONE',  ( 1.326762908760390423E-13, 1.199999999999995293, 38.00000000000000000 ) ) ;
#160 = MANIFOLD_SOLID_BREP ( 'Corps-Déplacer/Copier1[1]', #28 ) ;
#161 = VERTEX_POINT ( 'NONE', #159 ) ;
#162 = CC_DESIGN_PERSON_AND_ORGANIZATION_ASSIGNMENT ( #168, #139, ( #149 ) ) ;
#163 = AXIS2_PLACEMENT_3D ( 'NONE', #46, #85, #2 ) ;
#164 = AXIS2_PLACEMENT_3D ( 'NONE', #111, #73, #186 ) ;
#165 = PRODUCT_DEFINITION_FORMATION_WITH_SPECIFIED_SOURCE ( 'ANY', '', #31, .NOT_KNOWN. ) ;
#166 = ORIENTED_EDGE ( 'NONE', *, *, #78, .T. ) ;
#167 = ORIENTED_EDGE ( 'NONE', *, *, #210, .T. ) ;
#168 = PERSON_AND_ORGANIZATION ( #44, #26 ) ;
#169 = CYLINDRICAL_SURFACE ( 'NONE', #43, 1.499999999999998224 ) ;
#170 = EDGE_CURVE ( 'NONE', #141, #141, #19, .T. ) ;
#171 = ORIENTED_EDGE ( 'NONE', *, *, #216, .T. ) ;
#172 = PERSON_AND_ORGANIZATION ( #44, #26 ) ;
#173 = APPLICATION_CONTEXT ( 'configuration controlled 3d designs of mechanical parts and assemblies' ) ;
#174 = CALENDAR_DATE ( 2021, 28, 10 ) ;
#175 = DIRECTION ( 'NONE',  ( -4.275831445896958607E-31, -1.000000000000000000, -1.224646799147353207E-16 ) ) ;
#176 = CALENDAR_DATE ( 2021, 28, 10 ) ;
#177 = DIRECTION ( 'NONE',  ( -3.491481338843133355E-15, 1.224646799147353207E-16, -1.000000000000000000 ) ) ;
#178 = CC_DESIGN_APPROVAL ( #32, ( #149 ) ) ;
#179 = MECHANICAL_CONTEXT ( 'NONE', #173, 'mechanical' ) ;
#180 = APPLICATION_PROTOCOL_DEFINITION ( 'international standard', 'config_control_design', 1994, #173 ) ;
#181 = ORIENTED_EDGE ( 'NONE', *, *, #216, .F. ) ;
#182 = FACE_BOUND ( 'NONE', #67, .T. ) ;
#183 = ADVANCED_FACE ( 'NONE', ( #102, #91 ), #169, .T. ) ;
#184 = FACE_OUTER_BOUND ( 'NONE', #27, .T. ) ;
#185 = DATE_AND_TIME ( #174, #113 ) ;
#186 = DIRECTION ( 'NONE',  ( 0.0000000000000000000, -1.000000000000000000, 0.0000000000000000000 ) ) ;
#187 = DIRECTION ( 'NONE',  ( 0.0000000000000000000, 1.000000000000000000, 0.0000000000000000000 ) ) ;
#188 = APPROVAL_STATUS ( 'not_yet_approved' ) ;
#189 = CARTESIAN_POINT ( 'NONE',  ( 6.417516168215866522E-16, -2.250961661014063444E-17, 0.1838049683044344906 ) ) ;
#190 = CARTESIAN_POINT ( 'NONE',  ( 1.316288464743861212E-13, 1.499999999999995337, 37.69999999999999574 ) ) ;
#191 =( LENGTH_UNIT ( ) NAMED_UNIT ( * ) SI_UNIT ( .MILLI., .METRE. ) );
#192 = CARTESIAN_POINT ( 'NONE',  ( 0.0000000000000000000, 0.0000000000000000000, 0.0000000000000000000 ) ) ;
#193 = CC_DESIGN_DATE_AND_TIME_ASSIGNMENT ( #185, #68, ( #64 ) ) ;
#194 = UNCERTAINTY_MEASURE_WITH_UNIT (LENGTH_MEASURE( 1.000000000000000082E-05 ), #191, 'distance_accuracy_value', 'NONE');
#195 = EDGE_CURVE ( 'NONE', #161, #161, #140, .T. ) ;
#196 = AXIS2_PLACEMENT_3D ( 'NONE', #18, #89, #24 ) ;
#197 = ADVANCED_FACE ( 'NONE', ( #35, #106 ), #137, .T. ) ;
#198 = EDGE_LOOP ( 'NONE', ( #146 ) ) ;
#199 = PLANE ( 'NONE',  #145 ) ;
#200 = CC_DESIGN_PERSON_AND_ORGANIZATION_ASSIGNMENT ( #6, #71, ( #165 ) ) ;
#201 = COORDINATED_UNIVERSAL_TIME_OFFSET ( 1, 0, .AHEAD. ) ;
#202 = DIRECTION ( 'NONE',  ( 0.0000000000000000000, 1.000000000000000000, 0.0000000000000000000 ) ) ;
#203 = CONICAL_SURFACE ( 'NONE', #82, 1.499999999999995559, 1.221730476396026388 ) ;
#204 = ORIENTED_EDGE ( 'NONE', *, *, #210, .F. ) ;
#205 = COORDINATED_UNIVERSAL_TIME_OFFSET ( 1, 0, .AHEAD. ) ;
#206 = DIRECTION ( 'NONE',  ( -3.491481338843133355E-15, 1.229791517316362731E-16, -1.000000000000000000 ) ) ;
#207 = DIRECTION ( 'NONE',  ( -3.491481338843133355E-15, 1.224646799147353207E-16, -1.000000000000000000 ) ) ;
#208 = DATE_AND_TIME ( #48, #79 ) ;
#209 = DATE_AND_TIME ( #131, #213 ) ;
#210 = EDGE_CURVE ( 'NONE', #127, #127, #108, .T. ) ;
#211 = DIRECTION ( 'NONE',  ( 0.0000000000000000000, 1.000000000000000000, 0.0000000000000000000 ) ) ;
#212 = LOCAL_TIME ( 11, 22, 44.00000000000000000, #124 ) ;
#213 = LOCAL_TIME ( 11, 22, 44.00000000000000000, #34 ) ;
#214 = PERSON_AND_ORGANIZATION ( #44, #26 ) ;
#215 = CARTESIAN_POINT ( 'NONE',  ( 1.906192921252232855E-15, -6.686024735685322183E-17, 0.5459553513993090634 ) ) ;
#216 = EDGE_CURVE ( 'NONE', #110, #110, #62, .T. ) ;
#217 = CLOSED_SHELL ( 'NONE', ( #144, #197, #221 ) ) ;
#218 = DIRECTION ( 'NONE',  ( -3.813722662152942058E-31, -1.000000000000000000, -1.073467497510400366E-16 ) ) ;
#219 = CONICAL_SURFACE ( 'NONE', #119, 1.199999999999999956, 0.7853981633974453924 ) ;
#220 = APPROVAL_PERSON_ORGANIZATION ( #30, #55, #134 ) ;
#221 = ADVANCED_FACE ( 'NONE', ( #143 ), #203, .T. ) ;
#222 = CIRCLE ( 'NONE', #133, 0.5050000000000000044 ) ;
#223 = EDGE_LOOP ( 'NONE', ( #171 ) ) ;
ENDSEC;
END-ISO-10303-21;
