ISO-10303-21;
HEADER;
FILE_DESCRIPTION (( 'STEP AP203' ),
    '1' );
FILE_NAME ('962880.step',
    '2021-10-28T09:22:43',
    ( '' ),
    ( '' ),
    'SwSTEP 2.0',
    'SolidWorks 2019',
    '' );
FILE_SCHEMA (( 'CONFIG_CONTROL_DESIGN' ));
ENDSEC;

DATA;
#1 = EDGE_LOOP ( 'NONE', ( #119 ) ) ;
#2 = MECHANICAL_CONTEXT ( 'NONE', #11, 'mechanical' ) ;
#3 = CONICAL_SURFACE ( 'NONE', #142, 1.499999999999995559, 1.221730476396026388 ) ;
#4 = DIRECTION ( 'NONE',  ( -3.491481338843133355E-15, 1.229791517316362731E-16, -1.000000000000000000 ) ) ;
#5 = ORIENTED_EDGE ( 'NONE', *, *, #179, .T. ) ;
#6 = EDGE_LOOP ( 'NONE', ( #165 ) ) ;
#7 = APPROVAL ( #44, 'UNSPECIFIED' ) ;
#8 = FACE_OUTER_BOUND ( 'NONE', #84, .T. ) ;
#9 = MANIFOLD_SOLID_BREP ( 'Corps-Déplacer/Copier1[2]', #211 ) ;
#10 = EDGE_CURVE ( 'NONE', #91, #91, #70, .T. ) ;
#11 = APPLICATION_CONTEXT ( 'configuration controlled 3d designs of mechanical parts and assemblies' ) ;
#12 = PERSON_AND_ORGANIZATION_ROLE ( 'design_owner' ) ;
#13 =( LENGTH_UNIT ( ) NAMED_UNIT ( * ) SI_UNIT ( .MILLI., .METRE. ) );
#14 = APPROVAL_DATE_TIME ( #31, #7 ) ;
#15 = PERSON_AND_ORGANIZATION ( #153, #176 ) ;
#16 = DIRECTION ( 'NONE',  ( 3.491481338843133355E-15, -1.224646799147353207E-16, 1.000000000000000000 ) ) ;
#17 = EDGE_LOOP ( 'NONE', ( #74 ) ) ;
#18 = CALENDAR_DATE ( 2021, 28, 10 ) ;
#19 = APPROVAL_PERSON_ORGANIZATION ( #15, #138, #122 ) ;
#20 = DIRECTION ( 'NONE',  ( 0.0000000000000000000, 1.000000000000000000, 0.0000000000000000000 ) ) ;
#21 = CARTESIAN_POINT ( 'NONE',  ( 6.353976404174112147E-16, -2.228674911895108113E-17, 0.1819851171331030859 ) ) ;
#22 = DIRECTION ( 'NONE',  ( -3.491481338843133355E-15, 1.224646799147353207E-16, -1.000000000000000000 ) ) ;
#23 = ADVANCED_FACE ( 'NONE', ( #172 ), #193, .T. ) ;
#24 = PRODUCT_DEFINITION_SHAPE ( 'NONE', 'NONE',  #194 ) ;
#25 = DIRECTION ( 'NONE',  ( -3.491481338843133355E-15, 1.229791517316362731E-16, -1.000000000000000000 ) ) ;
#26 = PRODUCT_RELATED_PRODUCT_CATEGORY ( 'detail', '', ( #105 ) ) ;
#27 = APPLICATION_CONTEXT ( 'configuration controlled 3d designs of mechanical parts and assemblies' ) ;
#28 = ADVANCED_BREP_SHAPE_REPRESENTATION ( '962880', ( #78, #9, #110 ), #218 ) ;
#29 = DIRECTION ( 'NONE',  ( 0.0000000000000000000, 1.000000000000000000, 0.0000000000000000000 ) ) ;
#30 = PERSON_AND_ORGANIZATION_ROLE ( 'creator' ) ;
#31 = DATE_AND_TIME ( #223, #158 ) ;
#32 = DATE_AND_TIME ( #45, #135 ) ;
#33 = ORIENTED_EDGE ( 'NONE', *, *, #170, .T. ) ;
#34 = SECURITY_CLASSIFICATION_LEVEL ( 'unclassified' ) ;
#35 = CC_DESIGN_APPROVAL ( #138, ( #194 ) ) ;
#36 = PERSON_AND_ORGANIZATION_ROLE ( 'design_supplier' ) ;
#37 = CARTESIAN_POINT ( 'NONE',  ( 3.142333204958820020E-14, -1.106812365584726482E-15, 9.000000000000000000 ) ) ;
#38 = CARTESIAN_POINT ( 'NONE',  ( 1.326762908760390423E-13, -4.653657836759941941E-15, 38.00000000000000000 ) ) ;
#39 = CARTESIAN_POINT ( 'NONE',  ( 4.445371779982934303E-14, -1.565776808118913600E-15, 12.73205080756886609 ) ) ;
#40 = PLANE ( 'NONE',  #166 ) ;
#41 = EDGE_CURVE ( 'NONE', #208, #208, #174, .T. ) ;
#42 = CIRCLE ( 'NONE', #181, 1.199999999999999956 ) ;
#43 = DIRECTION ( 'NONE',  ( 3.491481338843133355E-15, -1.224646799147353207E-16, 1.000000000000000000 ) ) ;
#44 = APPROVAL_STATUS ( 'not_yet_approved' ) ;
#45 = CALENDAR_DATE ( 2021, 28, 10 ) ;
#46 = DESIGN_CONTEXT ( 'detailed design', #27, 'design' ) ;
#47 = APPROVAL_ROLE ( '' ) ;
#48 = DIRECTION ( 'NONE',  ( -4.275831445896958607E-31, -1.000000000000000000, -1.224646799147353207E-16 ) ) ;
#49 = SECURITY_CLASSIFICATION ( '', '', #34 ) ;
#50 = EDGE_LOOP ( 'NONE', ( #5 ) ) ;
#51 = FACE_OUTER_BOUND ( 'NONE', #1, .T. ) ;
#52 = FACE_OUTER_BOUND ( 'NONE', #50, .T. ) ;
#53 = ADVANCED_FACE ( 'NONE', ( #81, #86 ), #55, .T. ) ;
#54 = CARTESIAN_POINT ( 'NONE',  ( 3.142333204958820020E-14, 1.124819836996388964E-32, 9.000000000000000000 ) ) ;
#55 = CYLINDRICAL_SURFACE ( 'NONE', #99, 0.4999999999999990563 ) ;
#56 = DIRECTION ( 'NONE',  ( -3.491481338843133355E-15, 1.229791517316362731E-16, -1.000000000000000000 ) ) ;
#57 = APPROVAL_PERSON_ORGANIZATION ( #145, #98, #47 ) ;
#58 = DIRECTION ( 'NONE',  ( 4.275831445896958607E-31, 1.000000000000000000, 1.224646799147353207E-16 ) ) ;
#59 = ADVANCED_FACE ( 'NONE', ( #167, #217 ), #73, .T. ) ;
#60 = PERSON_AND_ORGANIZATION ( #153, #176 ) ;
#61 = SHAPE_DEFINITION_REPRESENTATION ( #24, #28 ) ;
#62 = EDGE_LOOP ( 'NONE', ( #198 ) ) ;
#63 = APPROVAL_STATUS ( 'not_yet_approved' ) ;
#64 = CARTESIAN_POINT ( 'NONE',  ( 1.316288464743861212E-13, 1.499999999999995337, 37.69999999999999574 ) ) ;
#65 = FACE_OUTER_BOUND ( 'NONE', #116, .T. ) ;
#66 = CIRCLE ( 'NONE', #80, 1.499999999999999778 ) ;
#67 = CC_DESIGN_DATE_AND_TIME_ASSIGNMENT ( #109, #72, ( #49 ) ) ;
#68 = DIRECTION ( 'NONE',  ( 4.275831445896958607E-31, 1.000000000000000000, 1.224646799147353207E-16 ) ) ;
#69 = DIRECTION ( 'NONE',  ( 3.491481338843133355E-15, -1.224646799147353207E-16, 1.000000000000000000 ) ) ;
#70 = CIRCLE ( 'NONE', #220, 0.4999999999999990563 ) ;
#71 = APPROVAL_PERSON_ORGANIZATION ( #60, #7, #111 ) ;
#72 = DATE_TIME_ROLE ( 'classification_date' ) ;
#73 = CONICAL_SURFACE ( 'NONE', #148, 1.499999999999998668, 0.2617993877991500740 ) ;
#74 = ORIENTED_EDGE ( 'NONE', *, *, #207, .T. ) ;
#75 = PERSON_AND_ORGANIZATION ( #153, #176 ) ;
#76 = DIRECTION ( 'NONE',  ( 0.0000000000000000000, 0.0000000000000000000, 1.000000000000000000 ) ) ;
#77 = AXIS2_PLACEMENT_3D ( 'NONE', #54, #69, #150 ) ;
#78 = MANIFOLD_SOLID_BREP ( 'Corps-Déplacer/Copier1[1]', #83 ) ;
#79 = CC_DESIGN_DATE_AND_TIME_ASSIGNMENT ( #221, #88, ( #194 ) ) ;
#80 = AXIS2_PLACEMENT_3D ( 'NONE', #121, #202, #29 ) ;
#81 = FACE_OUTER_BOUND ( 'NONE', #163, .T. ) ;
#82 = DIRECTION ( 'NONE',  ( -3.851859888774479151E-31, -1.000000000000000000, -1.084202172485506529E-16 ) ) ;
#83 = CLOSED_SHELL ( 'NONE', ( #154, #126, #175, #59, #222 ) ) ;
#84 = EDGE_LOOP ( 'NONE', ( #183 ) ) ;
#85 = CC_DESIGN_APPROVAL ( #98, ( #151 ) ) ;
#86 = FACE_OUTER_BOUND ( 'NONE', #144, .T. ) ;
#87 = DIRECTION ( 'NONE',  ( -3.491481338843133355E-15, 1.224646799147353207E-16, -1.000000000000000000 ) ) ;
#88 = DATE_TIME_ROLE ( 'creation_date' ) ;
#89 = CIRCLE ( 'NONE', #219, 0.4999999999999990563 ) ;
#90 = COORDINATED_UNIVERSAL_TIME_OFFSET ( 1, 0, .AHEAD. ) ;
#91 = VERTEX_POINT ( 'NONE', #189 ) ;
#92 = PERSON_AND_ORGANIZATION ( #153, #176 ) ;
#93 = APPROVAL_DATE_TIME ( #32, #138 ) ;
#94 = ORIENTED_EDGE ( 'NONE', *, *, #132, .T. ) ;
#95 = ADVANCED_FACE ( 'NONE', ( #65 ), #3, .T. ) ;
#96 = CALENDAR_DATE ( 2021, 28, 10 ) ;
#97 = VERTEX_POINT ( 'NONE', #64 ) ;
#98 = APPROVAL ( #63, 'UNSPECIFIED' ) ;
#99 = AXIS2_PLACEMENT_3D ( 'NONE', #102, #131, #129 ) ;
#100 = CARTESIAN_POINT ( 'NONE',  ( 3.142333204958820020E-14, -1.106812365584726482E-15, 9.000000000000000000 ) ) ;
#101 = DIRECTION ( 'NONE',  ( 3.491481338843133355E-15, -1.229791517316362731E-16, 1.000000000000000000 ) ) ;
#102 = CARTESIAN_POINT ( 'NONE',  ( 0.0000000000000000000, 0.0000000000000000000, 0.0000000000000000000 ) ) ;
#103 = AXIS2_PLACEMENT_3D ( 'NONE', #39, #25, #20 ) ;
#104 = CARTESIAN_POINT ( 'NONE',  ( 1.326762908760390423E-13, 8.998558695971077224E-33, 38.00000000000000000 ) ) ;
#105 = PRODUCT ( '962880', '962880', '', ( #2 ) ) ;
#106 = DIRECTION ( 'NONE',  ( 0.0000000000000000000, 1.000000000000000000, 0.0000000000000000000 ) ) ;
#107 = DIRECTION ( 'NONE',  ( -3.491481338843133355E-15, 1.224646799147353207E-16, -1.000000000000000000 ) ) ;
#108 = CC_DESIGN_PERSON_AND_ORGANIZATION_ASSIGNMENT ( #203, #162, ( #49 ) ) ;
#109 = DATE_AND_TIME ( #96, #171 ) ;
#110 = AXIS2_PLACEMENT_3D ( 'NONE', #164, #76, #209 ) ;
#111 = APPROVAL_ROLE ( '' ) ;
#112 = PERSON_AND_ORGANIZATION_ROLE ( 'creator' ) ;
#113 = CARTESIAN_POINT ( 'NONE',  ( 6.353976404174110175E-16, -0.4999999999999990563, 0.1819851171331030304 ) ) ;
#114 = APPLICATION_PROTOCOL_DEFINITION ( 'international standard', 'config_control_design', 1994, #11 ) ;
#115 = CC_DESIGN_PERSON_AND_ORGANIZATION_ASSIGNMENT ( #75, #112, ( #194 ) ) ;
#116 = EDGE_LOOP ( 'NONE', ( #94 ) ) ;
#117 = CC_DESIGN_SECURITY_CLASSIFICATION ( #49, ( #151 ) ) ;
#118 = FACE_BOUND ( 'NONE', #195, .T. ) ;
#119 = ORIENTED_EDGE ( 'NONE', *, *, #179, .F. ) ;
#120 = EDGE_LOOP ( 'NONE', ( #212 ) ) ;
#121 = CARTESIAN_POINT ( 'NONE',  ( 1.316288464743861212E-13, -4.616918432785521081E-15, 37.69999999999999574 ) ) ;
#122 = APPROVAL_ROLE ( '' ) ;
#123 = VERTEX_POINT ( 'NONE', #113 ) ;
#124 = COORDINATED_UNIVERSAL_TIME_OFFSET ( 1, 0, .AHEAD. ) ;
#125 = PLANE ( 'NONE',  #204 ) ;
#126 = ADVANCED_FACE ( 'NONE', ( #51, #118 ), #130, .T. ) ;
#127 = ORIENTED_EDGE ( 'NONE', *, *, #10, .T. ) ;
#128 = APPROVAL_DATE_TIME ( #205, #98 ) ;
#129 = DIRECTION ( 'NONE',  ( 4.293794133377661370E-31, 1.000000000000000000, 1.229791517316362731E-16 ) ) ;
#130 = CONICAL_SURFACE ( 'NONE', #201, 1.199999999999999956, 0.7853981633974453924 ) ;
#131 = DIRECTION ( 'NONE',  ( -3.491481338843133355E-15, 1.229791517316362731E-16, -1.000000000000000000 ) ) ;
#132 = EDGE_CURVE ( 'NONE', #123, #123, #136, .T. ) ;
#133 = DIRECTION ( 'NONE',  ( -3.491481338843133355E-15, 1.224646799147353207E-16, -1.000000000000000000 ) ) ;
#134 = DIRECTION ( 'NONE',  ( 0.0000000000000000000, 1.000000000000000000, 0.0000000000000000000 ) ) ;
#135 = LOCAL_TIME ( 11, 22, 43.00000000000000000, #188 ) ;
#136 = CIRCLE ( 'NONE', #157, 0.4999999999999990563 ) ;
#137 = CARTESIAN_POINT ( 'NONE',  ( 1.906192921252232855E-15, -6.686024735685322183E-17, 0.5459553513993090634 ) ) ;
#138 = APPROVAL ( #180, 'UNSPECIFIED' ) ;
#139 = LOCAL_TIME ( 11, 22, 43.00000000000000000, #90 ) ;
#140 = APPLICATION_PROTOCOL_DEFINITION ( 'international standard', 'config_control_design', 1994, #27 ) ;
#141 = PERSON_AND_ORGANIZATION ( #153, #176 ) ;
#142 = AXIS2_PLACEMENT_3D ( 'NONE', #137, #43, #214 ) ;
#143 = AXIS2_PLACEMENT_3D ( 'NONE', #152, #87, #68 ) ;
#144 = EDGE_LOOP ( 'NONE', ( #197 ) ) ;
#145 = PERSON_AND_ORGANIZATION ( #153, #176 ) ;
#146 = CC_DESIGN_PERSON_AND_ORGANIZATION_ASSIGNMENT ( #159, #30, ( #151 ) ) ;
#147 = CARTESIAN_POINT ( 'NONE',  ( 3.142333204958820020E-14, 0.4999999999999979461, 9.000000000000000000 ) ) ;
#148 = AXIS2_PLACEMENT_3D ( 'NONE', #169, #101, #149 ) ;
#149 = DIRECTION ( 'NONE',  ( 0.0000000000000000000, -1.000000000000000000, 0.0000000000000000000 ) ) ;
#150 = DIRECTION ( 'NONE',  ( -4.275831445896958607E-31, -1.000000000000000000, -1.224646799147353207E-16 ) ) ;
#151 = PRODUCT_DEFINITION_FORMATION_WITH_SPECIFIED_SOURCE ( 'ANY', '', #105, .NOT_KNOWN. ) ;
#152 = CARTESIAN_POINT ( 'NONE',  ( 0.0000000000000000000, 0.0000000000000000000, 0.0000000000000000000 ) ) ;
#153 = PERSON ( 'UNSPECIFIED', 'UNSPECIFIED', 'UNSPECIFIED', ('UNSPECIFIED'), ('UNSPECIFIED'), ('UNSPECIFIED') ) ;
#154 = ADVANCED_FACE ( 'NONE', ( #8, #52 ), #173, .T. ) ;
#155 = DIRECTION ( 'NONE',  ( 0.0000000000000000000, 1.000000000000000000, 0.0000000000000000000 ) ) ;
#156 = CARTESIAN_POINT ( 'NONE',  ( 1.326762908760390423E-13, -4.653657836759941941E-15, 38.00000000000000000 ) ) ;
#157 = AXIS2_PLACEMENT_3D ( 'NONE', #21, #215, #82 ) ;
#158 = LOCAL_TIME ( 11, 22, 43.00000000000000000, #182 ) ;
#159 = PERSON_AND_ORGANIZATION ( #153, #176 ) ;
#160 = COORDINATED_UNIVERSAL_TIME_OFFSET ( 1, 0, .AHEAD. ) ;
#161 = VERTEX_POINT ( 'NONE', #185 ) ;
#162 = PERSON_AND_ORGANIZATION_ROLE ( 'classification_officer' ) ;
#163 = EDGE_LOOP ( 'NONE', ( #127 ) ) ;
#164 = CARTESIAN_POINT ( 'NONE',  ( 0.0000000000000000000, 0.0000000000000000000, 0.0000000000000000000 ) ) ;
#165 = ORIENTED_EDGE ( 'NONE', *, *, #41, .T. ) ;
#166 = AXIS2_PLACEMENT_3D ( 'NONE', #104, #107, #58 ) ;
#167 = FACE_BOUND ( 'NONE', #168, .T. ) ;
#168 = EDGE_LOOP ( 'NONE', ( #191 ) ) ;
#169 = CARTESIAN_POINT ( 'NONE',  ( 4.445371779982934303E-14, -1.565776808118913600E-15, 12.73205080756886609 ) ) ;
#170 = EDGE_CURVE ( 'NONE', #161, #161, #42, .T. ) ;
#171 = LOCAL_TIME ( 11, 22, 43.00000000000000000, #160 ) ;
#172 = FACE_OUTER_BOUND ( 'NONE', #120, .T. ) ;
#173 = CYLINDRICAL_SURFACE ( 'NONE', #143, 1.499999999999998224 ) ;
#174 = CIRCLE ( 'NONE', #103, 1.499999999999998668 ) ;
#175 = ADVANCED_FACE ( 'NONE', ( #196 ), #40, .F. ) ;
#176 = ORGANIZATION ( 'UNSPECIFIED', 'UNSPECIFIED', '' ) ;
#177 = UNCERTAINTY_MEASURE_WITH_UNIT (LENGTH_MEASURE( 1.000000000000000082E-05 ), #13, 'distance_accuracy_value', 'NONE');
#178 =( NAMED_UNIT ( * ) SI_UNIT ( $, .STERADIAN. ) SOLID_ANGLE_UNIT ( ) );
#179 = EDGE_CURVE ( 'NONE', #97, #97, #66, .T. ) ;
#180 = APPROVAL_STATUS ( 'not_yet_approved' ) ;
#181 = AXIS2_PLACEMENT_3D ( 'NONE', #156, #133, #216 ) ;
#182 = COORDINATED_UNIVERSAL_TIME_OFFSET ( 1, 0, .AHEAD. ) ;
#183 = ORIENTED_EDGE ( 'NONE', *, *, #41, .F. ) ;
#184 = CALENDAR_DATE ( 2021, 28, 10 ) ;
#185 = CARTESIAN_POINT ( 'NONE',  ( 1.326762908760390423E-13, 1.199999999999995293, 38.00000000000000000 ) ) ;
#186 = CC_DESIGN_PERSON_AND_ORGANIZATION_ASSIGNMENT ( #141, #12, ( #105 ) ) ;
#187 = LOCAL_TIME ( 11, 22, 43.00000000000000000, #124 ) ;
#188 = COORDINATED_UNIVERSAL_TIME_OFFSET ( 1, 0, .AHEAD. ) ;
#189 = CARTESIAN_POINT ( 'NONE',  ( 3.142333204958820020E-14, 0.4999999999999979461, 9.000000000000000000 ) ) ;
#190 = CARTESIAN_POINT ( 'NONE',  ( 4.445371779982934303E-14, 1.499999999999997113, 12.73205080756886609 ) ) ;
#191 = ORIENTED_EDGE ( 'NONE', *, *, #207, .F. ) ;
#192 = CC_DESIGN_APPROVAL ( #7, ( #49 ) ) ;
#193 = PLANE ( 'NONE',  #77 ) ;
#194 = PRODUCT_DEFINITION ( 'UNKNOWN', '', #151, #46 ) ;
#195 = EDGE_LOOP ( 'NONE', ( #33 ) ) ;
#196 = FACE_OUTER_BOUND ( 'NONE', #62, .T. ) ;
#197 = ORIENTED_EDGE ( 'NONE', *, *, #132, .F. ) ;
#198 = ORIENTED_EDGE ( 'NONE', *, *, #170, .F. ) ;
#199 = CC_DESIGN_PERSON_AND_ORGANIZATION_ASSIGNMENT ( #92, #36, ( #151 ) ) ;
#200 = FACE_OUTER_BOUND ( 'NONE', #17, .T. ) ;
#201 = AXIS2_PLACEMENT_3D ( 'NONE', #38, #22, #155 ) ;
#202 = DIRECTION ( 'NONE',  ( -3.491481338843133355E-15, 1.224646799147353207E-16, -1.000000000000000000 ) ) ;
#203 = PERSON_AND_ORGANIZATION ( #153, #176 ) ;
#204 = AXIS2_PLACEMENT_3D ( 'NONE', #210, #16, #48 ) ;
#205 = DATE_AND_TIME ( #184, #187 ) ;
#206 = VERTEX_POINT ( 'NONE', #147 ) ;
#207 = EDGE_CURVE ( 'NONE', #206, #206, #89, .T. ) ;
#208 = VERTEX_POINT ( 'NONE', #190 ) ;
#209 = DIRECTION ( 'NONE',  ( 1.000000000000000000, 0.0000000000000000000, 0.0000000000000000000 ) ) ;
#210 = CARTESIAN_POINT ( 'NONE',  ( 3.142333204958820020E-14, 1.124819836996388964E-32, 9.000000000000000000 ) ) ;
#211 = CLOSED_SHELL ( 'NONE', ( #23, #53, #95 ) ) ;
#212 = ORIENTED_EDGE ( 'NONE', *, *, #10, .F. ) ;
#213 =( NAMED_UNIT ( * ) PLANE_ANGLE_UNIT ( ) SI_UNIT ( $, .RADIAN. ) );
#214 = DIRECTION ( 'NONE',  ( -5.135813185032644414E-31, -1.000000000000000000, -1.445602896647343601E-16 ) ) ;
#215 = DIRECTION ( 'NONE',  ( -3.491481338843133355E-15, 1.224646799147353207E-16, -1.000000000000000000 ) ) ;
#216 = DIRECTION ( 'NONE',  ( 0.0000000000000000000, 1.000000000000000000, 0.0000000000000000000 ) ) ;
#217 = FACE_OUTER_BOUND ( 'NONE', #6, .T. ) ;
#218 =( GEOMETRIC_REPRESENTATION_CONTEXT ( 3 ) GLOBAL_UNCERTAINTY_ASSIGNED_CONTEXT ( ( #177 ) ) GLOBAL_UNIT_ASSIGNED_CONTEXT ( ( #13, #213, #178 ) ) REPRESENTATION_CONTEXT ( 'NONE', 'WORKASPACE' ) );
#219 = AXIS2_PLACEMENT_3D ( 'NONE', #37, #56, #106 ) ;
#220 = AXIS2_PLACEMENT_3D ( 'NONE', #100, #4, #134 ) ;
#221 = DATE_AND_TIME ( #18, #139 ) ;
#222 = ADVANCED_FACE ( 'NONE', ( #200 ), #125, .F. ) ;
#223 = CALENDAR_DATE ( 2021, 28, 10 ) ;
ENDSEC;
END-ISO-10303-21;
