ISO-10303-21;
HEADER;
FILE_DESCRIPTION (( 'STEP AP203' ),
    '1' );
FILE_NAME ('962879.step',
    '2021-10-28T09:22:42',
    ( '' ),
    ( '' ),
    'SwSTEP 2.0',
    'SolidWorks 2019',
    '' );
FILE_SCHEMA (( 'CONFIG_CONTROL_DESIGN' ));
ENDSEC;

DATA;
#1 = DIRECTION ( 'NONE',  ( 0.0000000000000000000, 0.0000000000000000000, 1.000000000000000000 ) ) ;
#2 = PERSON_AND_ORGANIZATION ( #115, #98 ) ;
#3 = ORIENTED_EDGE ( 'NONE', *, *, #173, .F. ) ;
#4 = AXIS2_PLACEMENT_3D ( 'NONE', #160, #15, #41 ) ;
#5 = LOCAL_TIME ( 11, 22, 42.00000000000000000, #199 ) ;
#6 = APPROVAL_ROLE ( '' ) ;
#7 = COORDINATED_UNIVERSAL_TIME_OFFSET ( 1, 0, .AHEAD. ) ;
#8 = CONICAL_SURFACE ( 'NONE', #21, 1.499999999999998668, 0.2617993877991500740 ) ;
#9 = DIRECTION ( 'NONE',  ( -3.491481338843133355E-15, 1.224646799147353207E-16, -1.000000000000000000 ) ) ;
#10 = DIRECTION ( 'NONE',  ( 4.275831445896958607E-31, 1.000000000000000000, 1.224646799147353207E-16 ) ) ;
#11 = PERSON_AND_ORGANIZATION ( #115, #98 ) ;
#12 = DIRECTION ( 'NONE',  ( 0.0000000000000000000, 1.000000000000000000, 0.0000000000000000000 ) ) ;
#13 = EDGE_CURVE ( 'NONE', #110, #110, #212, .T. ) ;
#14 = APPROVAL_ROLE ( '' ) ;
#15 = DIRECTION ( 'NONE',  ( -3.491481338843133355E-15, 1.224646799147353207E-16, -1.000000000000000000 ) ) ;
#16 = DIRECTION ( 'NONE',  ( 0.0000000000000000000, 1.000000000000000000, 0.0000000000000000000 ) ) ;
#17 = ADVANCED_FACE ( 'NONE', ( #28, #119 ), #8, .T. ) ;
#18 =( LENGTH_UNIT ( ) NAMED_UNIT ( * ) SI_UNIT ( .MILLI., .METRE. ) );
#19 = APPROVAL ( #96, 'UNSPECIFIED' ) ;
#20 = SHAPE_DEFINITION_REPRESENTATION ( #33, #218 ) ;
#21 = AXIS2_PLACEMENT_3D ( 'NONE', #90, #180, #59 ) ;
#22 = ORIENTED_EDGE ( 'NONE', *, *, #101, .F. ) ;
#23 = DIRECTION ( 'NONE',  ( 1.000000000000000000, 0.0000000000000000000, 0.0000000000000000000 ) ) ;
#24 = EDGE_LOOP ( 'NONE', ( #156 ) ) ;
#25 = EDGE_LOOP ( 'NONE', ( #3 ) ) ;
#26 = CARTESIAN_POINT ( 'NONE',  ( 0.0000000000000000000, 0.0000000000000000000, 0.0000000000000000000 ) ) ;
#27 = ADVANCED_FACE ( 'NONE', ( #174, #198 ), #29, .T. ) ;
#28 = FACE_BOUND ( 'NONE', #81, .T. ) ;
#29 = CYLINDRICAL_SURFACE ( 'NONE', #138, 1.499999999999998224 ) ;
#30 = APPROVAL_PERSON_ORGANIZATION ( #129, #19, #204 ) ;
#31 = APPLICATION_PROTOCOL_DEFINITION ( 'international standard', 'config_control_design', 1994, #65 ) ;
#32 = PERSON_AND_ORGANIZATION ( #115, #98 ) ;
#33 = PRODUCT_DEFINITION_SHAPE ( 'NONE', 'NONE',  #182 ) ;
#34 = PLANE ( 'NONE',  #163 ) ;
#35 = PERSON_AND_ORGANIZATION_ROLE ( 'design_supplier' ) ;
#36 = AXIS2_PLACEMENT_3D ( 'NONE', #42, #91, #161 ) ;
#37 = DIRECTION ( 'NONE',  ( -4.275831445896958607E-31, -1.000000000000000000, -1.224646799147353207E-16 ) ) ;
#38 = CC_DESIGN_APPROVAL ( #19, ( #125 ) ) ;
#39 = CC_DESIGN_PERSON_AND_ORGANIZATION_ASSIGNMENT ( #169, #210, ( #189 ) ) ;
#40 = CARTESIAN_POINT ( 'NONE',  ( 1.326762908760390423E-13, -4.653657836759941941E-15, 38.00000000000000000 ) ) ;
#41 = DIRECTION ( 'NONE',  ( 0.0000000000000000000, 1.000000000000000000, 0.0000000000000000000 ) ) ;
#42 = CARTESIAN_POINT ( 'NONE',  ( 6.290436640132372564E-16, -2.206388162776157405E-17, 0.1801652659617721253 ) ) ;
#43 = AXIS2_PLACEMENT_3D ( 'NONE', #171, #1, #23 ) ;
#44 = CARTESIAN_POINT ( 'NONE',  ( 4.451886972858055130E-14, 1.499999999999997113, 12.75071106160670986 ) ) ;
#45 = CARTESIAN_POINT ( 'NONE',  ( 1.326762908760390423E-13, -4.653657836759941941E-15, 38.00000000000000000 ) ) ;
#46 = MECHANICAL_CONTEXT ( 'NONE', #117, 'mechanical' ) ;
#47 = APPROVAL_DATE_TIME ( #207, #19 ) ;
#48 = CC_DESIGN_PERSON_AND_ORGANIZATION_ASSIGNMENT ( #32, #61, ( #125 ) ) ;
#49 = DATE_TIME_ROLE ( 'creation_date' ) ;
#50 = EDGE_LOOP ( 'NONE', ( #68 ) ) ;
#51 = CALENDAR_DATE ( 2021, 28, 10 ) ;
#52 = CC_DESIGN_APPROVAL ( #164, ( #154 ) ) ;
#53 = APPROVAL_DATE_TIME ( #214, #164 ) ;
#54 = FACE_OUTER_BOUND ( 'NONE', #187, .T. ) ;
#55 = ORIENTED_EDGE ( 'NONE', *, *, #173, .T. ) ;
#56 = ADVANCED_FACE ( 'NONE', ( #140 ), #219, .F. ) ;
#57 = CONICAL_SURFACE ( 'NONE', #193, 1.499999999999995559, 1.221730476396026388 ) ;
#58 = DIRECTION ( 'NONE',  ( -4.275831445896958607E-31, -1.000000000000000000, -1.224646799147353207E-16 ) ) ;
#59 = DIRECTION ( 'NONE',  ( 0.0000000000000000000, -1.000000000000000000, 0.0000000000000000000 ) ) ;
#60 = DIRECTION ( 'NONE',  ( 3.491481338843133355E-15, -1.224646799147353207E-16, 1.000000000000000000 ) ) ;
#61 = PERSON_AND_ORGANIZATION_ROLE ( 'classification_officer' ) ;
#62 = APPROVAL ( #133, 'UNSPECIFIED' ) ;
#63 = CIRCLE ( 'NONE', #151, 1.499999999999998668 ) ;
#64 = CC_DESIGN_DATE_AND_TIME_ASSIGNMENT ( #66, #100, ( #125 ) ) ;
#65 = APPLICATION_CONTEXT ( 'configuration controlled 3d designs of mechanical parts and assemblies' ) ;
#66 = DATE_AND_TIME ( #107, #5 ) ;
#67 = MANIFOLD_SOLID_BREP ( 'Corps-Déplacer/Copier1[2]', #221 ) ;
#68 = ORIENTED_EDGE ( 'NONE', *, *, #71, .T. ) ;
#69 = EDGE_LOOP ( 'NONE', ( #206 ) ) ;
#70 = DIRECTION ( 'NONE',  ( 4.293794133377662246E-31, 1.000000000000000000, 1.229791517316362977E-16 ) ) ;
#71 = EDGE_CURVE ( 'NONE', #147, #147, #205, .T. ) ;
#72 = DIRECTION ( 'NONE',  ( -5.135813185032644414E-31, -1.000000000000000000, -1.445602896647343601E-16 ) ) ;
#73 = CARTESIAN_POINT ( 'NONE',  ( 0.0000000000000000000, 0.0000000000000000000, 0.0000000000000000000 ) ) ;
#74 = ORIENTED_EDGE ( 'NONE', *, *, #108, .T. ) ;
#75 = CARTESIAN_POINT ( 'NONE',  ( 1.316288464743861212E-13, 1.499999999999995337, 37.69999999999999574 ) ) ;
#76 = CARTESIAN_POINT ( 'NONE',  ( 1.326762908760390423E-13, 8.998558695971077224E-33, 38.00000000000000000 ) ) ;
#77 = EDGE_LOOP ( 'NONE', ( #22 ) ) ;
#78 = CALENDAR_DATE ( 2021, 28, 10 ) ;
#79 = APPROVAL_PERSON_ORGANIZATION ( #148, #62, #6 ) ;
#80 = CC_DESIGN_SECURITY_CLASSIFICATION ( #125, ( #154 ) ) ;
#81 = EDGE_LOOP ( 'NONE', ( #123 ) ) ;
#82 = CC_DESIGN_DATE_AND_TIME_ASSIGNMENT ( #185, #49, ( #182 ) ) ;
#83 = ORIENTED_EDGE ( 'NONE', *, *, #101, .T. ) ;
#84 = CIRCLE ( 'NONE', #36, 0.4949999999999989964 ) ;
#85 = DIRECTION ( 'NONE',  ( -3.491481338843133355E-15, 1.229791517316362731E-16, -1.000000000000000000 ) ) ;
#86 = DIRECTION ( 'NONE',  ( 3.491481338843133355E-15, -1.224646799147353207E-16, 1.000000000000000000 ) ) ;
#87 = CC_DESIGN_PERSON_AND_ORGANIZATION_ASSIGNMENT ( #191, #35, ( #154 ) ) ;
#88 = ORIENTED_EDGE ( 'NONE', *, *, #157, .T. ) ;
#89 = AXIS2_PLACEMENT_3D ( 'NONE', #40, #176, #95 ) ;
#90 = CARTESIAN_POINT ( 'NONE',  ( 4.451886972858055130E-14, -1.568071630331584823E-15, 12.75071106160670986 ) ) ;
#91 = DIRECTION ( 'NONE',  ( -3.491481338843133355E-15, 1.224646799147353207E-16, -1.000000000000000000 ) ) ;
#92 = DIRECTION ( 'NONE',  ( -3.491481338843133355E-15, 1.224646799147353207E-16, -1.000000000000000000 ) ) ;
#93 = CARTESIAN_POINT ( 'NONE',  ( 1.326762908760390423E-13, 1.199999999999995293, 38.00000000000000000 ) ) ;
#94 = CARTESIAN_POINT ( 'NONE',  ( 4.451886972858055130E-14, -1.568071630331584823E-15, 12.75071106160670986 ) ) ;
#95 = DIRECTION ( 'NONE',  ( 0.0000000000000000000, 1.000000000000000000, 0.0000000000000000000 ) ) ;
#96 = APPROVAL_STATUS ( 'not_yet_approved' ) ;
#97 = PLANE ( 'NONE',  #105 ) ;
#98 = ORGANIZATION ( 'UNSPECIFIED', 'UNSPECIFIED', '' ) ;
#99 = COORDINATED_UNIVERSAL_TIME_OFFSET ( 1, 0, .AHEAD. ) ;
#100 = DATE_TIME_ROLE ( 'classification_date' ) ;
#101 = EDGE_CURVE ( 'NONE', #142, #142, #103, .T. ) ;
#102 = CARTESIAN_POINT ( 'NONE',  ( 3.142333204958820020E-14, -1.106812365584726482E-15, 9.000000000000000000 ) ) ;
#103 = CIRCLE ( 'NONE', #183, 0.4949999999999989964 ) ;
#104 = AXIS2_PLACEMENT_3D ( 'NONE', #158, #60, #58 ) ;
#105 = AXIS2_PLACEMENT_3D ( 'NONE', #76, #92, #126 ) ;
#106 = DIRECTION ( 'NONE',  ( -3.491481338843133355E-15, 1.229791517316362731E-16, -1.000000000000000000 ) ) ;
#107 = CALENDAR_DATE ( 2021, 28, 10 ) ;
#108 = EDGE_CURVE ( 'NONE', #220, #220, #84, .T. ) ;
#109 = VERTEX_POINT ( 'NONE', #93 ) ;
#110 = VERTEX_POINT ( 'NONE', #75 ) ;
#111 = FACE_OUTER_BOUND ( 'NONE', #25, .T. ) ;
#112 = ADVANCED_FACE ( 'NONE', ( #135 ), #34, .T. ) ;
#113 = PERSON_AND_ORGANIZATION ( #115, #98 ) ;
#114 = DATE_AND_TIME ( #51, #166 ) ;
#115 = PERSON ( 'UNSPECIFIED', 'UNSPECIFIED', 'UNSPECIFIED', ('UNSPECIFIED'), ('UNSPECIFIED'), ('UNSPECIFIED') ) ;
#116 = FACE_OUTER_BOUND ( 'NONE', #69, .T. ) ;
#117 = APPLICATION_CONTEXT ( 'configuration controlled 3d designs of mechanical parts and assemblies' ) ;
#118 = PERSON_AND_ORGANIZATION_ROLE ( 'creator' ) ;
#119 = FACE_OUTER_BOUND ( 'NONE', #213, .T. ) ;
#120 = AXIS2_PLACEMENT_3D ( 'NONE', #73, #85, #70 ) ;
#121 = LOCAL_TIME ( 11, 22, 42.00000000000000000, #7 ) ;
#122 = DIRECTION ( 'NONE',  ( -3.491481338843133355E-15, 1.229791517316362731E-16, -1.000000000000000000 ) ) ;
#123 = ORIENTED_EDGE ( 'NONE', *, *, #71, .F. ) ;
#124 = LOCAL_TIME ( 11, 22, 42.00000000000000000, #99 ) ;
#125 = SECURITY_CLASSIFICATION ( '', '', #175 ) ;
#126 = DIRECTION ( 'NONE',  ( 4.275831445896958607E-31, 1.000000000000000000, 1.224646799147353207E-16 ) ) ;
#127 = CARTESIAN_POINT ( 'NONE',  ( 3.142333204958820020E-14, 0.4949999999999979416, 9.000000000000000000 ) ) ;
#128 = COORDINATED_UNIVERSAL_TIME_OFFSET ( 1, 0, .AHEAD. ) ;
#129 = PERSON_AND_ORGANIZATION ( #115, #98 ) ;
#130 = ADVANCED_FACE ( 'NONE', ( #54, #116 ), #172, .T. ) ;
#131 = COORDINATED_UNIVERSAL_TIME_OFFSET ( 1, 0, .AHEAD. ) ;
#132 = EDGE_LOOP ( 'NONE', ( #197 ) ) ;
#133 = APPROVAL_STATUS ( 'not_yet_approved' ) ;
#134 = AXIS2_PLACEMENT_3D ( 'NONE', #102, #106, #12 ) ;
#135 = FACE_OUTER_BOUND ( 'NONE', #77, .T. ) ;
#136 = FACE_OUTER_BOUND ( 'NONE', #141, .T. ) ;
#137 = FACE_OUTER_BOUND ( 'NONE', #177, .T. ) ;
#138 = AXIS2_PLACEMENT_3D ( 'NONE', #26, #9, #10 ) ;
#139 = CC_DESIGN_APPROVAL ( #62, ( #182 ) ) ;
#140 = FACE_OUTER_BOUND ( 'NONE', #50, .T. ) ;
#141 = EDGE_LOOP ( 'NONE', ( #74 ) ) ;
#142 = VERTEX_POINT ( 'NONE', #222 ) ;
#143 = MANIFOLD_SOLID_BREP ( 'Corps-Déplacer/Copier1[1]', #178 ) ;
#144 = VERTEX_POINT ( 'NONE', #44 ) ;
#145 = LOCAL_TIME ( 11, 22, 42.00000000000000000, #128 ) ;
#146 = ADVANCED_FACE ( 'NONE', ( #136 ), #57, .T. ) ;
#147 = VERTEX_POINT ( 'NONE', #127 ) ;
#148 = PERSON_AND_ORGANIZATION ( #115, #98 ) ;
#149 = APPROVAL_DATE_TIME ( #114, #62 ) ;
#150 = ADVANCED_FACE ( 'NONE', ( #137, #196 ), #170, .T. ) ;
#151 = AXIS2_PLACEMENT_3D ( 'NONE', #94, #202, #16 ) ;
#152 = CALENDAR_DATE ( 2021, 28, 10 ) ;
#153 = ORIENTED_EDGE ( 'NONE', *, *, #13, .F. ) ;
#154 = PRODUCT_DEFINITION_FORMATION_WITH_SPECIFIED_SOURCE ( 'ANY', '', #189, .NOT_KNOWN. ) ;
#155 = DIRECTION ( 'NONE',  ( 3.491481338843133355E-15, -1.224646799147353207E-16, 1.000000000000000000 ) ) ;
#156 = ORIENTED_EDGE ( 'NONE', *, *, #157, .F. ) ;
#157 = EDGE_CURVE ( 'NONE', #144, #144, #63, .T. ) ;
#158 = CARTESIAN_POINT ( 'NONE',  ( 3.142333204958820020E-14, 1.124819836996388964E-32, 9.000000000000000000 ) ) ;
#159 = APPROVAL_STATUS ( 'not_yet_approved' ) ;
#160 = CARTESIAN_POINT ( 'NONE',  ( 1.316288464743861212E-13, -4.616918432785521081E-15, 37.69999999999999574 ) ) ;
#161 = DIRECTION ( 'NONE',  ( -3.890767564418665963E-31, -1.000000000000000000, -1.095153709581319770E-16 ) ) ;
#162 = CARTESIAN_POINT ( 'NONE',  ( 6.290436640132370592E-16, -0.4949999999999989964, 0.1801652659617720698 ) ) ;
#163 = AXIS2_PLACEMENT_3D ( 'NONE', #215, #155, #37 ) ;
#164 = APPROVAL ( #159, 'UNSPECIFIED' ) ;
#165 = DIRECTION ( 'NONE',  ( 0.0000000000000000000, 1.000000000000000000, 0.0000000000000000000 ) ) ;
#166 = LOCAL_TIME ( 11, 22, 42.00000000000000000, #131 ) ;
#167 = APPLICATION_PROTOCOL_DEFINITION ( 'international standard', 'config_control_design', 1994, #117 ) ;
#168 = CC_DESIGN_PERSON_AND_ORGANIZATION_ASSIGNMENT ( #11, #118, ( #154 ) ) ;
#169 = PERSON_AND_ORGANIZATION ( #115, #98 ) ;
#170 = CONICAL_SURFACE ( 'NONE', #89, 1.199999999999999956, 0.7853981633974453924 ) ;
#171 = CARTESIAN_POINT ( 'NONE',  ( 0.0000000000000000000, 0.0000000000000000000, 0.0000000000000000000 ) ) ;
#172 = CYLINDRICAL_SURFACE ( 'NONE', #120, 0.4949999999999989964 ) ;
#173 = EDGE_CURVE ( 'NONE', #109, #109, #200, .T. ) ;
#174 = FACE_OUTER_BOUND ( 'NONE', #24, .T. ) ;
#175 = SECURITY_CLASSIFICATION_LEVEL ( 'unclassified' ) ;
#176 = DIRECTION ( 'NONE',  ( -3.491481338843133355E-15, 1.224646799147353207E-16, -1.000000000000000000 ) ) ;
#177 = EDGE_LOOP ( 'NONE', ( #153 ) ) ;
#178 = CLOSED_SHELL ( 'NONE', ( #27, #150, #190, #17, #56 ) ) ;
#179 = AXIS2_PLACEMENT_3D ( 'NONE', #45, #223, #165 ) ;
#180 = DIRECTION ( 'NONE',  ( 3.491481338843133355E-15, -1.229791517316362731E-16, 1.000000000000000000 ) ) ;
#181 =( GEOMETRIC_REPRESENTATION_CONTEXT ( 3 ) GLOBAL_UNCERTAINTY_ASSIGNED_CONTEXT ( ( #201 ) ) GLOBAL_UNIT_ASSIGNED_CONTEXT ( ( #18, #208, #211 ) ) REPRESENTATION_CONTEXT ( 'NONE', 'WORKASPACE' ) );
#182 = PRODUCT_DEFINITION ( 'UNKNOWN', '', #154, #184 ) ;
#183 = AXIS2_PLACEMENT_3D ( 'NONE', #188, #122, #192 ) ;
#184 = DESIGN_CONTEXT ( 'detailed design', #65, 'design' ) ;
#185 = DATE_AND_TIME ( #78, #124 ) ;
#186 = APPROVAL_PERSON_ORGANIZATION ( #113, #164, #14 ) ;
#187 = EDGE_LOOP ( 'NONE', ( #83 ) ) ;
#188 = CARTESIAN_POINT ( 'NONE',  ( 3.142333204958820020E-14, -1.106812365584726482E-15, 9.000000000000000000 ) ) ;
#189 = PRODUCT ( '962879', '962879', '', ( #46 ) ) ;
#190 = ADVANCED_FACE ( 'NONE', ( #111 ), #97, .F. ) ;
#191 = PERSON_AND_ORGANIZATION ( #115, #98 ) ;
#192 = DIRECTION ( 'NONE',  ( 0.0000000000000000000, 1.000000000000000000, 0.0000000000000000000 ) ) ;
#193 = AXIS2_PLACEMENT_3D ( 'NONE', #216, #86, #72 ) ;
#194 = PRODUCT_RELATED_PRODUCT_CATEGORY ( 'detail', '', ( #189 ) ) ;
#195 = CALENDAR_DATE ( 2021, 28, 10 ) ;
#196 = FACE_BOUND ( 'NONE', #217, .T. ) ;
#197 = ORIENTED_EDGE ( 'NONE', *, *, #13, .T. ) ;
#198 = FACE_OUTER_BOUND ( 'NONE', #132, .T. ) ;
#199 = COORDINATED_UNIVERSAL_TIME_OFFSET ( 1, 0, .AHEAD. ) ;
#200 = CIRCLE ( 'NONE', #179, 1.199999999999999956 ) ;
#201 = UNCERTAINTY_MEASURE_WITH_UNIT (LENGTH_MEASURE( 1.000000000000000082E-05 ), #18, 'distance_accuracy_value', 'NONE');
#202 = DIRECTION ( 'NONE',  ( -3.491481338843133355E-15, 1.229791517316362731E-16, -1.000000000000000000 ) ) ;
#203 = PERSON_AND_ORGANIZATION_ROLE ( 'creator' ) ;
#204 = APPROVAL_ROLE ( '' ) ;
#205 = CIRCLE ( 'NONE', #134, 0.4949999999999989964 ) ;
#206 = ORIENTED_EDGE ( 'NONE', *, *, #108, .F. ) ;
#207 = DATE_AND_TIME ( #152, #145 ) ;
#208 =( NAMED_UNIT ( * ) PLANE_ANGLE_UNIT ( ) SI_UNIT ( $, .RADIAN. ) );
#209 = CC_DESIGN_PERSON_AND_ORGANIZATION_ASSIGNMENT ( #2, #203, ( #182 ) ) ;
#210 = PERSON_AND_ORGANIZATION_ROLE ( 'design_owner' ) ;
#211 =( NAMED_UNIT ( * ) SI_UNIT ( $, .STERADIAN. ) SOLID_ANGLE_UNIT ( ) );
#212 = CIRCLE ( 'NONE', #4, 1.499999999999999778 ) ;
#213 = EDGE_LOOP ( 'NONE', ( #88 ) ) ;
#214 = DATE_AND_TIME ( #195, #121 ) ;
#215 = CARTESIAN_POINT ( 'NONE',  ( 3.142333204958820020E-14, 1.124819836996388964E-32, 9.000000000000000000 ) ) ;
#216 = CARTESIAN_POINT ( 'NONE',  ( 1.906192921252232855E-15, -6.686024735685322183E-17, 0.5459553513993090634 ) ) ;
#217 = EDGE_LOOP ( 'NONE', ( #55 ) ) ;
#218 = ADVANCED_BREP_SHAPE_REPRESENTATION ( '962879', ( #143, #67, #43 ), #181 ) ;
#219 = PLANE ( 'NONE',  #104 ) ;
#220 = VERTEX_POINT ( 'NONE', #162 ) ;
#221 = CLOSED_SHELL ( 'NONE', ( #112, #130, #146 ) ) ;
#222 = CARTESIAN_POINT ( 'NONE',  ( 3.142333204958820020E-14, 0.4949999999999979416, 9.000000000000000000 ) ) ;
#223 = DIRECTION ( 'NONE',  ( -3.491481338843133355E-15, 1.224646799147353207E-16, -1.000000000000000000 ) ) ;
ENDSEC;
END-ISO-10303-21;
