ISO-10303-21;
HEADER;
FILE_DESCRIPTION (( 'STEP AP203' ),
    '1' );
FILE_NAME ('962878.step',
    '2021-10-28T09:22:42',
    ( '' ),
    ( '' ),
    'SwSTEP 2.0',
    'SolidWorks 2019',
    '' );
FILE_SCHEMA (( 'CONFIG_CONTROL_DESIGN' ));
ENDSEC;

DATA;
#1 = DATE_AND_TIME ( #159, #184 ) ;
#2 = APPROVAL_ROLE ( '' ) ;
#3 = CLOSED_SHELL ( 'NONE', ( #47, #122, #83 ) ) ;
#4 = CONICAL_SURFACE ( 'NONE', #46, 1.499999999999998668, 0.2617993877991501295 ) ;
#5 = LOCAL_TIME ( 11, 22, 42.00000000000000000, #99 ) ;
#6 = CARTESIAN_POINT ( 'NONE',  ( 0.0000000000000000000, 0.0000000000000000000, 0.0000000000000000000 ) ) ;
#7 = PERSON_AND_ORGANIZATION ( #211, #131 ) ;
#8 = ORIENTED_EDGE ( 'NONE', *, *, #101, .T. ) ;
#9 = FACE_BOUND ( 'NONE', #143, .T. ) ;
#10 = ADVANCED_FACE ( 'NONE', ( #92, #180 ), #11, .T. ) ;
#11 = CYLINDRICAL_SURFACE ( 'NONE', #18, 1.499999999999998224 ) ;
#12 = APPROVAL_DATE_TIME ( #195, #216 ) ;
#13 = CARTESIAN_POINT ( 'NONE',  ( 6.226896876090628051E-16, -2.184101413657205464E-17, 0.1783454147904409703 ) ) ;
#14 = APPROVAL ( #191, 'UNSPECIFIED' ) ;
#15 = SECURITY_CLASSIFICATION_LEVEL ( 'unclassified' ) ;
#16 = PLANE ( 'NONE',  #89 ) ;
#17 = CARTESIAN_POINT ( 'NONE',  ( 1.316288464743861212E-13, 1.499999999999995337, 37.69999999999999574 ) ) ;
#18 = AXIS2_PLACEMENT_3D ( 'NONE', #130, #197, #177 ) ;
#19 = PERSON_AND_ORGANIZATION ( #211, #131 ) ;
#20 = PERSON_AND_ORGANIZATION_ROLE ( 'design_owner' ) ;
#21 = PRODUCT_RELATED_PRODUCT_CATEGORY ( 'detail', '', ( #71 ) ) ;
#22 = AXIS2_PLACEMENT_3D ( 'NONE', #147, #217, #94 ) ;
#23 = ORIENTED_EDGE ( 'NONE', *, *, #77, .T. ) ;
#24 = APPROVAL_STATUS ( 'not_yet_approved' ) ;
#25 = ADVANCED_FACE ( 'NONE', ( #140, #9 ), #49, .T. ) ;
#26 = DIRECTION ( 'NONE',  ( 0.0000000000000000000, 1.000000000000000000, 0.0000000000000000000 ) ) ;
#27 = EDGE_LOOP ( 'NONE', ( #73 ) ) ;
#28 = DIRECTION ( 'NONE',  ( -3.491481338843133355E-15, 1.229791517316362731E-16, -1.000000000000000000 ) ) ;
#29 = DIRECTION ( 'NONE',  ( -3.491481338843133355E-15, 1.224646799147353207E-16, -1.000000000000000000 ) ) ;
#30 = CARTESIAN_POINT ( 'NONE',  ( 3.142333204958820020E-14, 1.124819836996388964E-32, 9.000000000000000000 ) ) ;
#31 = UNCERTAINTY_MEASURE_WITH_UNIT (LENGTH_MEASURE( 1.000000000000000082E-05 ), #97, 'distance_accuracy_value', 'NONE');
#32 =( NAMED_UNIT ( * ) SI_UNIT ( $, .STERADIAN. ) SOLID_ANGLE_UNIT ( ) );
#33 = CC_DESIGN_SECURITY_CLASSIFICATION ( #58, ( #173 ) ) ;
#34 = CC_DESIGN_PERSON_AND_ORGANIZATION_ASSIGNMENT ( #59, #178, ( #58 ) ) ;
#35 = COORDINATED_UNIVERSAL_TIME_OFFSET ( 1, 0, .AHEAD. ) ;
#36 = FACE_OUTER_BOUND ( 'NONE', #171, .T. ) ;
#37 = PERSON_AND_ORGANIZATION_ROLE ( 'design_supplier' ) ;
#38 = AXIS2_PLACEMENT_3D ( 'NONE', #162, #106, #182 ) ;
#39 = CARTESIAN_POINT ( 'NONE',  ( 1.326762908760390423E-13, -4.653657836759941941E-15, 38.00000000000000000 ) ) ;
#40 = LOCAL_TIME ( 11, 22, 42.00000000000000000, #35 ) ;
#41 = DIRECTION ( 'NONE',  ( 3.491481338843133355E-15, -1.224646799147353207E-16, 1.000000000000000000 ) ) ;
#42 = EDGE_CURVE ( 'NONE', #118, #118, #212, .T. ) ;
#43 = FACE_BOUND ( 'NONE', #64, .T. ) ;
#44 = ORIENTED_EDGE ( 'NONE', *, *, #42, .F. ) ;
#45 = CIRCLE ( 'NONE', #107, 1.499999999999999778 ) ;
#46 = AXIS2_PLACEMENT_3D ( 'NONE', #124, #134, #223 ) ;
#47 = ADVANCED_FACE ( 'NONE', ( #179 ), #16, .T. ) ;
#48 = VERTEX_POINT ( 'NONE', #115 ) ;
#49 = CONICAL_SURFACE ( 'NONE', #117, 1.199999999999999956, 0.7853981633974453924 ) ;
#50 = ADVANCED_FACE ( 'NONE', ( #218 ), #129, .F. ) ;
#51 = DIRECTION ( 'NONE',  ( -3.491481338843133355E-15, 1.224646799147353207E-16, -1.000000000000000000 ) ) ;
#52 = DATE_TIME_ROLE ( 'creation_date' ) ;
#53 = DATE_AND_TIME ( #204, #5 ) ;
#54 = PERSON_AND_ORGANIZATION ( #211, #131 ) ;
#55 = ORIENTED_EDGE ( 'NONE', *, *, #84, .T. ) ;
#56 = APPROVAL_ROLE ( '' ) ;
#57 =( NAMED_UNIT ( * ) PLANE_ANGLE_UNIT ( ) SI_UNIT ( $, .RADIAN. ) );
#58 = SECURITY_CLASSIFICATION ( '', '', #15 ) ;
#59 = PERSON_AND_ORGANIZATION ( #211, #131 ) ;
#60 = DIRECTION ( 'NONE',  ( -3.491481338843133355E-15, 1.224646799147353207E-16, -1.000000000000000000 ) ) ;
#61 = FACE_OUTER_BOUND ( 'NONE', #158, .T. ) ;
#62 = EDGE_CURVE ( 'NONE', #168, #168, #111, .T. ) ;
#63 = AXIS2_PLACEMENT_3D ( 'NONE', #146, #75, #214 ) ;
#64 = EDGE_LOOP ( 'NONE', ( #105 ) ) ;
#65 = EDGE_LOOP ( 'NONE', ( #66 ) ) ;
#66 = ORIENTED_EDGE ( 'NONE', *, *, #77, .F. ) ;
#67 = CALENDAR_DATE ( 2021, 28, 10 ) ;
#68 = CC_DESIGN_PERSON_AND_ORGANIZATION_ASSIGNMENT ( #208, #20, ( #71 ) ) ;
#69 = CC_DESIGN_DATE_AND_TIME_ASSIGNMENT ( #170, #52, ( #110 ) ) ;
#70 = CIRCLE ( 'NONE', #63, 1.499999999999998668 ) ;
#71 = PRODUCT ( '962878', '962878', '', ( #210 ) ) ;
#72 = APPROVAL_DATE_TIME ( #53, #136 ) ;
#73 = ORIENTED_EDGE ( 'NONE', *, *, #62, .F. ) ;
#74 =( GEOMETRIC_REPRESENTATION_CONTEXT ( 3 ) GLOBAL_UNCERTAINTY_ASSIGNED_CONTEXT ( ( #31 ) ) GLOBAL_UNIT_ASSIGNED_CONTEXT ( ( #97, #57, #32 ) ) REPRESENTATION_CONTEXT ( 'NONE', 'WORKASPACE' ) );
#75 = DIRECTION ( 'NONE',  ( -3.491481338843133355E-15, 1.229791517316362731E-16, -1.000000000000000000 ) ) ;
#76 = CARTESIAN_POINT ( 'NONE',  ( 0.0000000000000000000, 0.0000000000000000000, 0.0000000000000000000 ) ) ;
#77 = EDGE_CURVE ( 'NONE', #100, #100, #45, .T. ) ;
#78 = DIRECTION ( 'NONE',  ( -3.491481338843133355E-15, 1.224646799147353207E-16, -1.000000000000000000 ) ) ;
#79 = AXIS2_PLACEMENT_3D ( 'NONE', #13, #167, #166 ) ;
#80 = CARTESIAN_POINT ( 'NONE',  ( 1.326762908760390423E-13, -4.653657836759941941E-15, 38.00000000000000000 ) ) ;
#81 = FACE_OUTER_BOUND ( 'NONE', #192, .T. ) ;
#82 = FACE_OUTER_BOUND ( 'NONE', #27, .T. ) ;
#83 = ADVANCED_FACE ( 'NONE', ( #164 ), #156, .T. ) ;
#84 = EDGE_CURVE ( 'NONE', #150, #150, #144, .T. ) ;
#85 = CC_DESIGN_APPROVAL ( #14, ( #110 ) ) ;
#86 = CC_DESIGN_APPROVAL ( #136, ( #58 ) ) ;
#87 = EDGE_LOOP ( 'NONE', ( #55 ) ) ;
#88 = EDGE_LOOP ( 'NONE', ( #23 ) ) ;
#89 = AXIS2_PLACEMENT_3D ( 'NONE', #30, #41, #121 ) ;
#90 = CYLINDRICAL_SURFACE ( 'NONE', #181, 0.4899999999999989919 ) ;
#91 = CARTESIAN_POINT ( 'NONE',  ( 3.142333204958820020E-14, -1.106812365584726482E-15, 9.000000000000000000 ) ) ;
#92 = FACE_OUTER_BOUND ( 'NONE', #209, .T. ) ;
#93 = ORIENTED_EDGE ( 'NONE', *, *, #186, .T. ) ;
#94 = DIRECTION ( 'NONE',  ( -5.135813185032644414E-31, -1.000000000000000000, -1.445602896647343601E-16 ) ) ;
#95 = PLANE ( 'NONE',  #157 ) ;
#96 = DIRECTION ( 'NONE',  ( 0.0000000000000000000, 1.000000000000000000, 0.0000000000000000000 ) ) ;
#97 =( LENGTH_UNIT ( ) NAMED_UNIT ( * ) SI_UNIT ( .MILLI., .METRE. ) );
#98 = CARTESIAN_POINT ( 'NONE',  ( 1.326762908760390423E-13, 8.998558695971077224E-33, 38.00000000000000000 ) ) ;
#99 = COORDINATED_UNIVERSAL_TIME_OFFSET ( 1, 0, .AHEAD. ) ;
#100 = VERTEX_POINT ( 'NONE', #17 ) ;
#101 = EDGE_CURVE ( 'NONE', #48, #48, #70, .T. ) ;
#102 = COORDINATED_UNIVERSAL_TIME_OFFSET ( 1, 0, .AHEAD. ) ;
#103 = ORIENTED_EDGE ( 'NONE', *, *, #84, .F. ) ;
#104 = PERSON_AND_ORGANIZATION ( #211, #131 ) ;
#105 = ORIENTED_EDGE ( 'NONE', *, *, #186, .F. ) ;
#106 = DIRECTION ( 'NONE',  ( 3.491481338843133355E-15, -1.224646799147353207E-16, 1.000000000000000000 ) ) ;
#107 = AXIS2_PLACEMENT_3D ( 'NONE', #163, #29, #26 ) ;
#108 = CC_DESIGN_PERSON_AND_ORGANIZATION_ASSIGNMENT ( #189, #137, ( #110 ) ) ;
#109 = EDGE_LOOP ( 'NONE', ( #44 ) ) ;
#110 = PRODUCT_DEFINITION ( 'UNKNOWN', '', #173, #154 ) ;
#111 = CIRCLE ( 'NONE', #125, 1.199999999999999956 ) ;
#112 = CIRCLE ( 'NONE', #126, 0.4899999999999989919 ) ;
#113 = DIRECTION ( 'NONE',  ( 0.0000000000000000000, 1.000000000000000000, 0.0000000000000000000 ) ) ;
#114 = DATE_TIME_ROLE ( 'classification_date' ) ;
#115 = CARTESIAN_POINT ( 'NONE',  ( 4.458402165733174695E-14, 1.499999999999997113, 12.76937131564455363 ) ) ;
#116 = VERTEX_POINT ( 'NONE', #169 ) ;
#117 = AXIS2_PLACEMENT_3D ( 'NONE', #80, #60, #215 ) ;
#118 = VERTEX_POINT ( 'NONE', #152 ) ;
#119 = COORDINATED_UNIVERSAL_TIME_OFFSET ( 1, 0, .AHEAD. ) ;
#120 = ADVANCED_BREP_SHAPE_REPRESENTATION ( '962878', ( #160, #148, #200 ), #74 ) ;
#121 = DIRECTION ( 'NONE',  ( -4.275831445896958607E-31, -1.000000000000000000, -1.224646799147353207E-16 ) ) ;
#122 = ADVANCED_FACE ( 'NONE', ( #81, #36 ), #90, .T. ) ;
#123 = COORDINATED_UNIVERSAL_TIME_OFFSET ( 1, 0, .AHEAD. ) ;
#124 = CARTESIAN_POINT ( 'NONE',  ( 4.458402165733174695E-14, -1.570366452544255455E-15, 12.76937131564455363 ) ) ;
#125 = AXIS2_PLACEMENT_3D ( 'NONE', #39, #78, #128 ) ;
#126 = AXIS2_PLACEMENT_3D ( 'NONE', #222, #202, #96 ) ;
#127 = APPROVAL_PERSON_ORGANIZATION ( #54, #216, #2 ) ;
#128 = DIRECTION ( 'NONE',  ( 0.0000000000000000000, 1.000000000000000000, 0.0000000000000000000 ) ) ;
#129 = PLANE ( 'NONE',  #38 ) ;
#130 = CARTESIAN_POINT ( 'NONE',  ( 0.0000000000000000000, 0.0000000000000000000, 0.0000000000000000000 ) ) ;
#131 = ORGANIZATION ( 'UNSPECIFIED', 'UNSPECIFIED', '' ) ;
#132 = APPROVAL_PERSON_ORGANIZATION ( #19, #136, #135 ) ;
#133 = CARTESIAN_POINT ( 'NONE',  ( 6.226896876090626079E-16, -0.4899999999999989919, 0.1783454147904409148 ) ) ;
#134 = DIRECTION ( 'NONE',  ( 3.491481338843133355E-15, -1.229791517316362731E-16, 1.000000000000000000 ) ) ;
#135 = APPROVAL_ROLE ( '' ) ;
#136 = APPROVAL ( #207, 'UNSPECIFIED' ) ;
#137 = PERSON_AND_ORGANIZATION_ROLE ( 'creator' ) ;
#138 = ORIENTED_EDGE ( 'NONE', *, *, #101, .F. ) ;
#139 = APPLICATION_CONTEXT ( 'configuration controlled 3d designs of mechanical parts and assemblies' ) ;
#140 = FACE_OUTER_BOUND ( 'NONE', #65, .T. ) ;
#141 = DIRECTION ( 'NONE',  ( -3.491481338843133355E-15, 1.229791517316362731E-16, -1.000000000000000000 ) ) ;
#142 = PRODUCT_DEFINITION_SHAPE ( 'NONE', 'NONE',  #110 ) ;
#143 = EDGE_LOOP ( 'NONE', ( #175 ) ) ;
#144 = CIRCLE ( 'NONE', #79, 0.4899999999999989919 ) ;
#145 = LOCAL_TIME ( 11, 22, 42.00000000000000000, #102 ) ;
#146 = CARTESIAN_POINT ( 'NONE',  ( 4.458402165733174695E-14, -1.570366452544255455E-15, 12.76937131564455363 ) ) ;
#147 = CARTESIAN_POINT ( 'NONE',  ( 1.906192921252232855E-15, -6.686024735685322183E-17, 0.5459553513993090634 ) ) ;
#148 = MANIFOLD_SOLID_BREP ( 'Corps-Déplacer/Copier1[2]', #3 ) ;
#149 = DIRECTION ( 'NONE',  ( 4.275831445896958607E-31, 1.000000000000000000, 1.224646799147353207E-16 ) ) ;
#150 = VERTEX_POINT ( 'NONE', #133 ) ;
#151 = CC_DESIGN_APPROVAL ( #216, ( #173 ) ) ;
#152 = CARTESIAN_POINT ( 'NONE',  ( 3.142333204958820020E-14, 0.4899999999999979372, 9.000000000000000000 ) ) ;
#153 = DIRECTION ( 'NONE',  ( 1.000000000000000000, 0.0000000000000000000, 0.0000000000000000000 ) ) ;
#154 = DESIGN_CONTEXT ( 'detailed design', #139, 'design' ) ;
#155 = CC_DESIGN_PERSON_AND_ORGANIZATION_ASSIGNMENT ( #165, #37, ( #173 ) ) ;
#156 = CONICAL_SURFACE ( 'NONE', #22, 1.499999999999995559, 1.221730476396026388 ) ;
#157 = AXIS2_PLACEMENT_3D ( 'NONE', #98, #51, #149 ) ;
#158 = EDGE_LOOP ( 'NONE', ( #8 ) ) ;
#159 = CALENDAR_DATE ( 2021, 28, 10 ) ;
#160 = MANIFOLD_SOLID_BREP ( 'Corps-Déplacer/Copier1[1]', #185 ) ;
#161 = APPROVAL_PERSON_ORGANIZATION ( #104, #14, #56 ) ;
#162 = CARTESIAN_POINT ( 'NONE',  ( 3.142333204958820020E-14, 1.124819836996388964E-32, 9.000000000000000000 ) ) ;
#163 = CARTESIAN_POINT ( 'NONE',  ( 1.316288464743861212E-13, -4.616918432785521081E-15, 37.69999999999999574 ) ) ;
#164 = FACE_OUTER_BOUND ( 'NONE', #87, .T. ) ;
#165 = PERSON_AND_ORGANIZATION ( #211, #131 ) ;
#166 = DIRECTION ( 'NONE',  ( -3.930469274259672969E-31, -1.000000000000000000, -1.106328747434190439E-16 ) ) ;
#167 = DIRECTION ( 'NONE',  ( -3.491481338843133355E-15, 1.224646799147353207E-16, -1.000000000000000000 ) ) ;
#168 = VERTEX_POINT ( 'NONE', #220 ) ;
#169 = CARTESIAN_POINT ( 'NONE',  ( 3.142333204958820020E-14, 0.4899999999999979372, 9.000000000000000000 ) ) ;
#170 = DATE_AND_TIME ( #206, #145 ) ;
#171 = EDGE_LOOP ( 'NONE', ( #103 ) ) ;
#172 = DIRECTION ( 'NONE',  ( 0.0000000000000000000, 0.0000000000000000000, 1.000000000000000000 ) ) ;
#173 = PRODUCT_DEFINITION_FORMATION_WITH_SPECIFIED_SOURCE ( 'ANY', '', #71, .NOT_KNOWN. ) ;
#174 = APPLICATION_PROTOCOL_DEFINITION ( 'international standard', 'config_control_design', 1994, #196 ) ;
#175 = ORIENTED_EDGE ( 'NONE', *, *, #62, .T. ) ;
#176 = ORIENTED_EDGE ( 'NONE', *, *, #42, .T. ) ;
#177 = DIRECTION ( 'NONE',  ( 4.275831445896958607E-31, 1.000000000000000000, 1.224646799147353207E-16 ) ) ;
#178 = PERSON_AND_ORGANIZATION_ROLE ( 'classification_officer' ) ;
#179 = FACE_OUTER_BOUND ( 'NONE', #109, .T. ) ;
#180 = FACE_OUTER_BOUND ( 'NONE', #88, .T. ) ;
#181 = AXIS2_PLACEMENT_3D ( 'NONE', #76, #141, #198 ) ;
#182 = DIRECTION ( 'NONE',  ( -4.275831445896958607E-31, -1.000000000000000000, -1.224646799147353207E-16 ) ) ;
#183 = ADVANCED_FACE ( 'NONE', ( #43, #61 ), #4, .T. ) ;
#184 = LOCAL_TIME ( 11, 22, 42.00000000000000000, #119 ) ;
#185 = CLOSED_SHELL ( 'NONE', ( #10, #25, #205, #183, #50 ) ) ;
#186 = EDGE_CURVE ( 'NONE', #116, #116, #112, .T. ) ;
#187 = APPLICATION_PROTOCOL_DEFINITION ( 'international standard', 'config_control_design', 1994, #139 ) ;
#188 = SHAPE_DEFINITION_REPRESENTATION ( #142, #120 ) ;
#189 = PERSON_AND_ORGANIZATION ( #211, #131 ) ;
#190 = LOCAL_TIME ( 11, 22, 42.00000000000000000, #123 ) ;
#191 = APPROVAL_STATUS ( 'not_yet_approved' ) ;
#192 = EDGE_LOOP ( 'NONE', ( #176 ) ) ;
#193 = PERSON_AND_ORGANIZATION_ROLE ( 'creator' ) ;
#194 = EDGE_LOOP ( 'NONE', ( #93 ) ) ;
#195 = DATE_AND_TIME ( #213, #190 ) ;
#196 = APPLICATION_CONTEXT ( 'configuration controlled 3d designs of mechanical parts and assemblies' ) ;
#197 = DIRECTION ( 'NONE',  ( -3.491481338843133355E-15, 1.224646799147353207E-16, -1.000000000000000000 ) ) ;
#198 = DIRECTION ( 'NONE',  ( 4.293794133377662246E-31, 1.000000000000000000, 1.229791517316362731E-16 ) ) ;
#199 = DATE_AND_TIME ( #67, #40 ) ;
#200 = AXIS2_PLACEMENT_3D ( 'NONE', #6, #172, #153 ) ;
#201 = AXIS2_PLACEMENT_3D ( 'NONE', #91, #28, #113 ) ;
#202 = DIRECTION ( 'NONE',  ( -3.491481338843133355E-15, 1.229791517316362731E-16, -1.000000000000000000 ) ) ;
#203 = APPROVAL_DATE_TIME ( #1, #14 ) ;
#204 = CALENDAR_DATE ( 2021, 28, 10 ) ;
#205 = ADVANCED_FACE ( 'NONE', ( #82 ), #95, .F. ) ;
#206 = CALENDAR_DATE ( 2021, 28, 10 ) ;
#207 = APPROVAL_STATUS ( 'not_yet_approved' ) ;
#208 = PERSON_AND_ORGANIZATION ( #211, #131 ) ;
#209 = EDGE_LOOP ( 'NONE', ( #138 ) ) ;
#210 = MECHANICAL_CONTEXT ( 'NONE', #196, 'mechanical' ) ;
#211 = PERSON ( 'UNSPECIFIED', 'UNSPECIFIED', 'UNSPECIFIED', ('UNSPECIFIED'), ('UNSPECIFIED'), ('UNSPECIFIED') ) ;
#212 = CIRCLE ( 'NONE', #201, 0.4899999999999989919 ) ;
#213 = CALENDAR_DATE ( 2021, 28, 10 ) ;
#214 = DIRECTION ( 'NONE',  ( 0.0000000000000000000, 1.000000000000000000, 0.0000000000000000000 ) ) ;
#215 = DIRECTION ( 'NONE',  ( 0.0000000000000000000, 1.000000000000000000, 0.0000000000000000000 ) ) ;
#216 = APPROVAL ( #24, 'UNSPECIFIED' ) ;
#217 = DIRECTION ( 'NONE',  ( 3.491481338843133355E-15, -1.224646799147353207E-16, 1.000000000000000000 ) ) ;
#218 = FACE_OUTER_BOUND ( 'NONE', #194, .T. ) ;
#219 = CC_DESIGN_PERSON_AND_ORGANIZATION_ASSIGNMENT ( #7, #193, ( #173 ) ) ;
#220 = CARTESIAN_POINT ( 'NONE',  ( 1.326762908760390423E-13, 1.199999999999995293, 38.00000000000000000 ) ) ;
#221 = CC_DESIGN_DATE_AND_TIME_ASSIGNMENT ( #199, #114, ( #58 ) ) ;
#222 = CARTESIAN_POINT ( 'NONE',  ( 3.142333204958820020E-14, -1.106812365584726482E-15, 9.000000000000000000 ) ) ;
#223 = DIRECTION ( 'NONE',  ( 0.0000000000000000000, -1.000000000000000000, 0.0000000000000000000 ) ) ;
ENDSEC;
END-ISO-10303-21;
