ISO-10303-21;
HEADER;
FILE_DESCRIPTION (( 'STEP AP203' ),
    '1' );
FILE_NAME ('962876.step',
    '2021-10-28T09:22:40',
    ( '' ),
    ( '' ),
    'SwSTEP 2.0',
    'SolidWorks 2019',
    '' );
FILE_SCHEMA (( 'CONFIG_CONTROL_DESIGN' ));
ENDSEC;

DATA;
#1 = CALENDAR_DATE ( 2021, 28, 10 ) ;
#2 = APPROVAL_DATE_TIME ( #41, #72 ) ;
#3 = APPROVAL_ROLE ( '' ) ;
#4 = AXIS2_PLACEMENT_3D ( 'NONE', #100, #170, #83 ) ;
#5 = AXIS2_PLACEMENT_3D ( 'NONE', #182, #129, #78 ) ;
#6 = AXIS2_PLACEMENT_3D ( 'NONE', #92, #218, #55 ) ;
#7 = LOCAL_TIME ( 11, 22, 40.00000000000000000, #149 ) ;
#8 = APPLICATION_CONTEXT ( 'configuration controlled 3d designs of mechanical parts and assemblies' ) ;
#9 = EDGE_LOOP ( 'NONE', ( #66 ) ) ;
#10 = PRODUCT_DEFINITION ( 'UNKNOWN', '', #37, #43 ) ;
#11 = ORIENTED_EDGE ( 'NONE', *, *, #80, .F. ) ;
#12 = ORIENTED_EDGE ( 'NONE', *, *, #40, .F. ) ;
#13 = AXIS2_PLACEMENT_3D ( 'NONE', #194, #115, #50 ) ;
#14 = FACE_OUTER_BOUND ( 'NONE', #48, .T. ) ;
#15 = CARTESIAN_POINT ( 'NONE',  ( 1.906192921252232855E-15, -6.686024735685322183E-17, 0.5459553513993090634 ) ) ;
#16 = CARTESIAN_POINT ( 'NONE',  ( 3.142333204958820020E-14, 0.4799999999999978728, 9.000000000000000000 ) ) ;
#17 = CIRCLE ( 'NONE', #145, 1.499999999999999778 ) ;
#18 = CARTESIAN_POINT ( 'NONE',  ( 1.326762908760390423E-13, -4.653657836759941941E-15, 38.00000000000000000 ) ) ;
#19 = DIRECTION ( 'NONE',  ( 4.275831445896958607E-31, 1.000000000000000000, 1.224646799147353207E-16 ) ) ;
#20 = AXIS2_PLACEMENT_3D ( 'NONE', #15, #187, #120 ) ;
#21 = DATE_AND_TIME ( #151, #88 ) ;
#22 = PERSON_AND_ORGANIZATION ( #59, #197 ) ;
#23 = CC_DESIGN_PERSON_AND_ORGANIZATION_ASSIGNMENT ( #105, #93, ( #121 ) ) ;
#24 = PERSON_AND_ORGANIZATION ( #59, #197 ) ;
#25 = ADVANCED_FACE ( 'NONE', ( #184, #199 ), #64, .T. ) ;
#26 = EDGE_LOOP ( 'NONE', ( #11 ) ) ;
#27 = FACE_OUTER_BOUND ( 'NONE', #134, .T. ) ;
#28 = AXIS2_PLACEMENT_3D ( 'NONE', #178, #35, #19 ) ;
#29 = EDGE_LOOP ( 'NONE', ( #49 ) ) ;
#30 = ADVANCED_FACE ( 'NONE', ( #27 ), #31, .T. ) ;
#31 = PLANE ( 'NONE',  #4 ) ;
#32 = CIRCLE ( 'NONE', #77, 0.4799999999999989830 ) ;
#33 = DIRECTION ( 'NONE',  ( -3.491481338843133355E-15, 1.229791517316362731E-16, -1.000000000000000000 ) ) ;
#34 = VERTEX_POINT ( 'NONE', #188 ) ;
#35 = DIRECTION ( 'NONE',  ( -3.491481338843133355E-15, 1.224646799147353207E-16, -1.000000000000000000 ) ) ;
#36 = ADVANCED_FACE ( 'NONE', ( #87 ), #175, .F. ) ;
#37 = PRODUCT_DEFINITION_FORMATION_WITH_SPECIFIED_SOURCE ( 'ANY', '', #107, .NOT_KNOWN. ) ;
#38 = FACE_OUTER_BOUND ( 'NONE', #155, .T. ) ;
#39 = APPLICATION_CONTEXT ( 'configuration controlled 3d designs of mechanical parts and assemblies' ) ;
#40 = EDGE_CURVE ( 'NONE', #86, #86, #17, .T. ) ;
#41 = DATE_AND_TIME ( #1, #81 ) ;
#42 = PERSON_AND_ORGANIZATION_ROLE ( 'creator' ) ;
#43 = DESIGN_CONTEXT ( 'detailed design', #8, 'design' ) ;
#44 = APPROVAL ( #192, 'UNSPECIFIED' ) ;
#45 = EDGE_LOOP ( 'NONE', ( #63 ) ) ;
#46 = APPROVAL_DATE_TIME ( #212, #91 ) ;
#47 = EDGE_CURVE ( 'NONE', #216, #216, #221, .T. ) ;
#48 = EDGE_LOOP ( 'NONE', ( #117 ) ) ;
#49 = ORIENTED_EDGE ( 'NONE', *, *, #65, .F. ) ;
#50 = DIRECTION ( 'NONE',  ( 4.293794133377662246E-31, 1.000000000000000000, 1.229791517316362731E-16 ) ) ;
#51 = DIRECTION ( 'NONE',  ( 3.491481338843133355E-15, -1.224646799147353207E-16, 1.000000000000000000 ) ) ;
#52 = DIRECTION ( 'NONE',  ( -3.491481338843133355E-15, 1.224646799147353207E-16, -1.000000000000000000 ) ) ;
#53 = EDGE_CURVE ( 'NONE', #54, #54, #99, .T. ) ;
#54 = VERTEX_POINT ( 'NONE', #71 ) ;
#55 = DIRECTION ( 'NONE',  ( 0.0000000000000000000, 1.000000000000000000, 0.0000000000000000000 ) ) ;
#56 = DIRECTION ( 'NONE',  ( 3.491481338843133355E-15, -1.229791517316362731E-16, 1.000000000000000000 ) ) ;
#57 =( NAMED_UNIT ( * ) PLANE_ANGLE_UNIT ( ) SI_UNIT ( $, .RADIAN. ) );
#58 = PERSON_AND_ORGANIZATION_ROLE ( 'design_owner' ) ;
#59 = PERSON ( 'UNSPECIFIED', 'UNSPECIFIED', 'UNSPECIFIED', ('UNSPECIFIED'), ('UNSPECIFIED'), ('UNSPECIFIED') ) ;
#60 =( NAMED_UNIT ( * ) SI_UNIT ( $, .STERADIAN. ) SOLID_ANGLE_UNIT ( ) );
#61 = APPLICATION_PROTOCOL_DEFINITION ( 'international standard', 'config_control_design', 1994, #39 ) ;
#62 = AXIS2_PLACEMENT_3D ( 'NONE', #76, #56, #122 ) ;
#63 = ORIENTED_EDGE ( 'NONE', *, *, #80, .T. ) ;
#64 = CYLINDRICAL_SURFACE ( 'NONE', #13, 0.4799999999999989830 ) ;
#65 = EDGE_CURVE ( 'NONE', #140, #140, #32, .T. ) ;
#66 = ORIENTED_EDGE ( 'NONE', *, *, #53, .F. ) ;
#67 = CLOSED_SHELL ( 'NONE', ( #183, #109, #111, #89, #36 ) ) ;
#68 = CC_DESIGN_APPROVAL ( #44, ( #37 ) ) ;
#69 = EDGE_LOOP ( 'NONE', ( #198 ) ) ;
#70 = DIRECTION ( 'NONE',  ( 4.275831445896958607E-31, 1.000000000000000000, 1.224646799147353207E-16 ) ) ;
#71 = CARTESIAN_POINT ( 'NONE',  ( 6.099817348007144940E-16, -0.4799999999999989830, 0.1747057124477788825 ) ) ;
#72 = APPROVAL ( #164, 'UNSPECIFIED' ) ;
#73 = FACE_BOUND ( 'NONE', #29, .T. ) ;
#74 = UNCERTAINTY_MEASURE_WITH_UNIT (LENGTH_MEASURE( 1.000000000000000082E-05 ), #104, 'distance_accuracy_value', 'NONE');
#75 = CARTESIAN_POINT ( 'NONE',  ( 6.099817348007146912E-16, -2.139527915419303123E-17, 0.1747057124477789380 ) ) ;
#76 = CARTESIAN_POINT ( 'NONE',  ( 4.471432551483416349E-14, -1.574956096969597508E-15, 12.80669182372024295 ) ) ;
#77 = AXIS2_PLACEMENT_3D ( 'NONE', #124, #33, #190 ) ;
#78 = DIRECTION ( 'NONE',  ( 1.000000000000000000, 0.0000000000000000000, 0.0000000000000000000 ) ) ;
#79 = APPROVAL_STATUS ( 'not_yet_approved' ) ;
#80 = EDGE_CURVE ( 'NONE', #201, #201, #176, .T. ) ;
#81 = LOCAL_TIME ( 11, 22, 40.00000000000000000, #191 ) ;
#82 = ORIENTED_EDGE ( 'NONE', *, *, #65, .T. ) ;
#83 = DIRECTION ( 'NONE',  ( -4.275831445896958607E-31, -1.000000000000000000, -1.224646799147353207E-16 ) ) ;
#84 = CC_DESIGN_DATE_AND_TIME_ASSIGNMENT ( #21, #108, ( #10 ) ) ;
#85 = CARTESIAN_POINT ( 'NONE',  ( 0.0000000000000000000, 0.0000000000000000000, 0.0000000000000000000 ) ) ;
#86 = VERTEX_POINT ( 'NONE', #159 ) ;
#87 = FACE_OUTER_BOUND ( 'NONE', #213, .T. ) ;
#88 = LOCAL_TIME ( 11, 22, 40.00000000000000000, #181 ) ;
#89 = ADVANCED_FACE ( 'NONE', ( #73, #177 ), #96, .T. ) ;
#90 = DIRECTION ( 'NONE',  ( -4.275831445896958607E-31, -1.000000000000000000, -1.224646799147353207E-16 ) ) ;
#91 = APPROVAL ( #79, 'UNSPECIFIED' ) ;
#92 = CARTESIAN_POINT ( 'NONE',  ( 3.142333204958820020E-14, -1.106812365584726482E-15, 9.000000000000000000 ) ) ;
#93 = PERSON_AND_ORGANIZATION_ROLE ( 'classification_officer' ) ;
#94 = PRODUCT_DEFINITION_SHAPE ( 'NONE', 'NONE',  #10 ) ;
#95 = DATE_TIME_ROLE ( 'classification_date' ) ;
#96 = CONICAL_SURFACE ( 'NONE', #62, 1.499999999999998668, 0.2617993877991500740 ) ;
#97 = DATE_AND_TIME ( #209, #7 ) ;
#98 = CALENDAR_DATE ( 2021, 28, 10 ) ;
#99 = CIRCLE ( 'NONE', #131, 0.4799999999999989830 ) ;
#100 = CARTESIAN_POINT ( 'NONE',  ( 3.142333204958820020E-14, 1.124819836996388964E-32, 9.000000000000000000 ) ) ;
#101 = DIRECTION ( 'NONE',  ( -3.491481338843133355E-15, 1.229791517316362731E-16, -1.000000000000000000 ) ) ;
#102 = DIRECTION ( 'NONE',  ( -3.491481338843133355E-15, 1.224646799147353207E-16, -1.000000000000000000 ) ) ;
#103 = FACE_OUTER_BOUND ( 'NONE', #69, .T. ) ;
#104 =( LENGTH_UNIT ( ) NAMED_UNIT ( * ) SI_UNIT ( .MILLI., .METRE. ) );
#105 = PERSON_AND_ORGANIZATION ( #59, #197 ) ;
#106 = APPROVAL_PERSON_ORGANIZATION ( #112, #72, #166 ) ;
#107 = PRODUCT ( '962876', '962876', '', ( #110 ) ) ;
#108 = DATE_TIME_ROLE ( 'creation_date' ) ;
#109 = ADVANCED_FACE ( 'NONE', ( #38, #203 ), #167, .T. ) ;
#110 = MECHANICAL_CONTEXT ( 'NONE', #39, 'mechanical' ) ;
#111 = ADVANCED_FACE ( 'NONE', ( #103 ), #174, .F. ) ;
#112 = PERSON_AND_ORGANIZATION ( #59, #197 ) ;
#113 =( GEOMETRIC_REPRESENTATION_CONTEXT ( 3 ) GLOBAL_UNCERTAINTY_ASSIGNED_CONTEXT ( ( #74 ) ) GLOBAL_UNIT_ASSIGNED_CONTEXT ( ( #104, #57, #60 ) ) REPRESENTATION_CONTEXT ( 'NONE', 'WORKASPACE' ) );
#114 = ORIENTED_EDGE ( 'NONE', *, *, #53, .T. ) ;
#115 = DIRECTION ( 'NONE',  ( -3.491481338843133355E-15, 1.229791517316362731E-16, -1.000000000000000000 ) ) ;
#116 = AXIS2_PLACEMENT_3D ( 'NONE', #85, #215, #70 ) ;
#117 = ORIENTED_EDGE ( 'NONE', *, *, #40, .T. ) ;
#118 = EDGE_CURVE ( 'NONE', #34, #34, #119, .T. ) ;
#119 = CIRCLE ( 'NONE', #207, 1.199999999999999956 ) ;
#120 = DIRECTION ( 'NONE',  ( -5.135813185032644414E-31, -1.000000000000000000, -1.445602896647343601E-16 ) ) ;
#121 = SECURITY_CLASSIFICATION ( '', '', #130 ) ;
#122 = DIRECTION ( 'NONE',  ( 0.0000000000000000000, -1.000000000000000000, 0.0000000000000000000 ) ) ;
#123 = DIRECTION ( 'NONE',  ( -3.491481338843133355E-15, 1.224646799147353207E-16, -1.000000000000000000 ) ) ;
#124 = CARTESIAN_POINT ( 'NONE',  ( 3.142333204958820020E-14, -1.106812365584726482E-15, 9.000000000000000000 ) ) ;
#125 = CYLINDRICAL_SURFACE ( 'NONE', #116, 1.499999999999998224 ) ;
#126 = APPLICATION_PROTOCOL_DEFINITION ( 'international standard', 'config_control_design', 1994, #8 ) ;
#127 = AXIS2_PLACEMENT_3D ( 'NONE', #139, #102, #173 ) ;
#128 = PERSON_AND_ORGANIZATION_ROLE ( 'creator' ) ;
#129 = DIRECTION ( 'NONE',  ( 0.0000000000000000000, 0.0000000000000000000, 1.000000000000000000 ) ) ;
#130 = SECURITY_CLASSIFICATION_LEVEL ( 'unclassified' ) ;
#131 = AXIS2_PLACEMENT_3D ( 'NONE', #75, #52, #202 ) ;
#132 = CC_DESIGN_SECURITY_CLASSIFICATION ( #121, ( #37 ) ) ;
#133 = ORIENTED_EDGE ( 'NONE', *, *, #118, .T. ) ;
#134 = EDGE_LOOP ( 'NONE', ( #152 ) ) ;
#135 = SHAPE_DEFINITION_REPRESENTATION ( #94, #153 ) ;
#136 = CC_DESIGN_APPROVAL ( #91, ( #121 ) ) ;
#137 = ORIENTED_EDGE ( 'NONE', *, *, #47, .T. ) ;
#138 = MANIFOLD_SOLID_BREP ( 'Corps-Déplacer/Copier1[1]', #67 ) ;
#139 = CARTESIAN_POINT ( 'NONE',  ( 1.326762908760390423E-13, -4.653657836759941941E-15, 38.00000000000000000 ) ) ;
#140 = VERTEX_POINT ( 'NONE', #16 ) ;
#141 = CC_DESIGN_APPROVAL ( #72, ( #10 ) ) ;
#142 = CARTESIAN_POINT ( 'NONE',  ( 3.142333204958820020E-14, 0.4799999999999978728, 9.000000000000000000 ) ) ;
#143 = CARTESIAN_POINT ( 'NONE',  ( 3.142333204958820020E-14, 1.124819836996388964E-32, 9.000000000000000000 ) ) ;
#144 = FACE_OUTER_BOUND ( 'NONE', #26, .T. ) ;
#145 = AXIS2_PLACEMENT_3D ( 'NONE', #162, #185, #161 ) ;
#146 = APPROVAL_PERSON_ORGANIZATION ( #163, #91, #148 ) ;
#147 = COORDINATED_UNIVERSAL_TIME_OFFSET ( 1, 0, .AHEAD. ) ;
#148 = APPROVAL_ROLE ( '' ) ;
#149 = COORDINATED_UNIVERSAL_TIME_OFFSET ( 1, 0, .AHEAD. ) ;
#150 = CC_DESIGN_PERSON_AND_ORGANIZATION_ASSIGNMENT ( #180, #223, ( #37 ) ) ;
#151 = CALENDAR_DATE ( 2021, 28, 10 ) ;
#152 = ORIENTED_EDGE ( 'NONE', *, *, #47, .F. ) ;
#153 = ADVANCED_BREP_SHAPE_REPRESENTATION ( '962876', ( #138, #211, #5 ), #113 ) ;
#154 = COORDINATED_UNIVERSAL_TIME_OFFSET ( 1, 0, .AHEAD. ) ;
#155 = EDGE_LOOP ( 'NONE', ( #12 ) ) ;
#156 = PRODUCT_RELATED_PRODUCT_CATEGORY ( 'detail', '', ( #107 ) ) ;
#157 = EDGE_LOOP ( 'NONE', ( #137 ) ) ;
#158 = DIRECTION ( 'NONE',  ( 0.0000000000000000000, 1.000000000000000000, 0.0000000000000000000 ) ) ;
#159 = CARTESIAN_POINT ( 'NONE',  ( 1.316288464743861212E-13, 1.499999999999995337, 37.69999999999999574 ) ) ;
#160 = FACE_OUTER_BOUND ( 'NONE', #195, .T. ) ;
#161 = DIRECTION ( 'NONE',  ( 0.0000000000000000000, 1.000000000000000000, 0.0000000000000000000 ) ) ;
#162 = CARTESIAN_POINT ( 'NONE',  ( 1.316288464743861212E-13, -4.616918432785521081E-15, 37.69999999999999574 ) ) ;
#163 = PERSON_AND_ORGANIZATION ( #59, #197 ) ;
#164 = APPROVAL_STATUS ( 'not_yet_approved' ) ;
#165 = CC_DESIGN_PERSON_AND_ORGANIZATION_ASSIGNMENT ( #22, #58, ( #107 ) ) ;
#166 = APPROVAL_ROLE ( '' ) ;
#167 = CONICAL_SURFACE ( 'NONE', #127, 1.199999999999999956, 0.7853981633974453924 ) ;
#168 = APPROVAL_DATE_TIME ( #97, #44 ) ;
#169 = AXIS2_PLACEMENT_3D ( 'NONE', #143, #51, #90 ) ;
#170 = DIRECTION ( 'NONE',  ( 3.491481338843133355E-15, -1.224646799147353207E-16, 1.000000000000000000 ) ) ;
#171 = CC_DESIGN_DATE_AND_TIME_ASSIGNMENT ( #179, #95, ( #121 ) ) ;
#172 = CLOSED_SHELL ( 'NONE', ( #30, #25, #186 ) ) ;
#173 = DIRECTION ( 'NONE',  ( 0.0000000000000000000, 1.000000000000000000, 0.0000000000000000000 ) ) ;
#174 = PLANE ( 'NONE',  #28 ) ;
#175 = PLANE ( 'NONE',  #169 ) ;
#176 = CIRCLE ( 'NONE', #193, 1.499999999999998668 ) ;
#177 = FACE_OUTER_BOUND ( 'NONE', #45, .T. ) ;
#178 = CARTESIAN_POINT ( 'NONE',  ( 1.326762908760390423E-13, 8.998558695971077224E-33, 38.00000000000000000 ) ) ;
#179 = DATE_AND_TIME ( #204, #208 ) ;
#180 = PERSON_AND_ORGANIZATION ( #59, #197 ) ;
#181 = COORDINATED_UNIVERSAL_TIME_OFFSET ( 1, 0, .AHEAD. ) ;
#182 = CARTESIAN_POINT ( 'NONE',  ( 0.0000000000000000000, 0.0000000000000000000, 0.0000000000000000000 ) ) ;
#183 = ADVANCED_FACE ( 'NONE', ( #144, #14 ), #125, .T. ) ;
#184 = FACE_OUTER_BOUND ( 'NONE', #157, .T. ) ;
#185 = DIRECTION ( 'NONE',  ( -3.491481338843133355E-15, 1.224646799147353207E-16, -1.000000000000000000 ) ) ;
#186 = ADVANCED_FACE ( 'NONE', ( #160 ), #196, .T. ) ;
#187 = DIRECTION ( 'NONE',  ( 3.491481338843133355E-15, -1.224646799147353207E-16, 1.000000000000000000 ) ) ;
#188 = CARTESIAN_POINT ( 'NONE',  ( 1.326762908760390423E-13, 1.199999999999995293, 38.00000000000000000 ) ) ;
#189 = DIRECTION ( 'NONE',  ( 0.0000000000000000000, 1.000000000000000000, 0.0000000000000000000 ) ) ;
#190 = DIRECTION ( 'NONE',  ( 0.0000000000000000000, 1.000000000000000000, 0.0000000000000000000 ) ) ;
#191 = COORDINATED_UNIVERSAL_TIME_OFFSET ( 1, 0, .AHEAD. ) ;
#192 = APPROVAL_STATUS ( 'not_yet_approved' ) ;
#193 = AXIS2_PLACEMENT_3D ( 'NONE', #220, #101, #189 ) ;
#194 = CARTESIAN_POINT ( 'NONE',  ( 0.0000000000000000000, 0.0000000000000000000, 0.0000000000000000000 ) ) ;
#195 = EDGE_LOOP ( 'NONE', ( #114 ) ) ;
#196 = CONICAL_SURFACE ( 'NONE', #20, 1.499999999999995559, 1.221730476396026388 ) ;
#197 = ORGANIZATION ( 'UNSPECIFIED', 'UNSPECIFIED', '' ) ;
#198 = ORIENTED_EDGE ( 'NONE', *, *, #118, .F. ) ;
#199 = FACE_OUTER_BOUND ( 'NONE', #9, .T. ) ;
#200 = CARTESIAN_POINT ( 'NONE',  ( 4.471432551483416349E-14, 1.499999999999997113, 12.80669182372024295 ) ) ;
#201 = VERTEX_POINT ( 'NONE', #200 ) ;
#202 = DIRECTION ( 'NONE',  ( -4.012354050806749535E-31, -1.000000000000000000, -1.129377263005736086E-16 ) ) ;
#203 = FACE_BOUND ( 'NONE', #214, .T. ) ;
#204 = CALENDAR_DATE ( 2021, 28, 10 ) ;
#205 = CC_DESIGN_PERSON_AND_ORGANIZATION_ASSIGNMENT ( #24, #128, ( #10 ) ) ;
#206 = PERSON_AND_ORGANIZATION ( #59, #197 ) ;
#207 = AXIS2_PLACEMENT_3D ( 'NONE', #18, #123, #158 ) ;
#208 = LOCAL_TIME ( 11, 22, 40.00000000000000000, #147 ) ;
#209 = CALENDAR_DATE ( 2021, 28, 10 ) ;
#210 = PERSON_AND_ORGANIZATION ( #59, #197 ) ;
#211 = MANIFOLD_SOLID_BREP ( 'Corps-Déplacer/Copier1[2]', #172 ) ;
#212 = DATE_AND_TIME ( #98, #222 ) ;
#213 = EDGE_LOOP ( 'NONE', ( #82 ) ) ;
#214 = EDGE_LOOP ( 'NONE', ( #133 ) ) ;
#215 = DIRECTION ( 'NONE',  ( -3.491481338843133355E-15, 1.224646799147353207E-16, -1.000000000000000000 ) ) ;
#216 = VERTEX_POINT ( 'NONE', #142 ) ;
#217 = APPROVAL_PERSON_ORGANIZATION ( #206, #44, #3 ) ;
#218 = DIRECTION ( 'NONE',  ( -3.491481338843133355E-15, 1.229791517316362731E-16, -1.000000000000000000 ) ) ;
#219 = CC_DESIGN_PERSON_AND_ORGANIZATION_ASSIGNMENT ( #210, #42, ( #37 ) ) ;
#220 = CARTESIAN_POINT ( 'NONE',  ( 4.471432551483416349E-14, -1.574956096969597508E-15, 12.80669182372024295 ) ) ;
#221 = CIRCLE ( 'NONE', #6, 0.4799999999999989830 ) ;
#222 = LOCAL_TIME ( 11, 22, 40.00000000000000000, #154 ) ;
#223 = PERSON_AND_ORGANIZATION_ROLE ( 'design_supplier' ) ;
ENDSEC;
END-ISO-10303-21;
