ISO-10303-21;
HEADER;
FILE_DESCRIPTION (( 'STEP AP203' ),
    '1' );
FILE_NAME ('962875.step',
    '2021-10-28T09:22:40',
    ( '' ),
    ( '' ),
    'SwSTEP 2.0',
    'SolidWorks 2019',
    '' );
FILE_SCHEMA (( 'CONFIG_CONTROL_DESIGN' ));
ENDSEC;

DATA;
#1 = DIRECTION ( 'NONE',  ( -4.054589356604711945E-31, -1.000000000000000000, -1.141265444721584990E-16 ) ) ;
#2 = FACE_BOUND ( 'NONE', #91, .T. ) ;
#3 = CARTESIAN_POINT ( 'NONE',  ( 2.478951750578624367E-14, -8.731519772946173392E-16, 7.099999999999999645 ) ) ;
#4 = APPROVAL_STATUS ( 'not_yet_approved' ) ;
#5 = CONICAL_SURFACE ( 'NONE', #206, 1.499999999999998446, 0.2617993877991500740 ) ;
#6 = ADVANCED_FACE ( 'NONE', ( #204, #170 ), #11, .T. ) ;
#7 = APPROVAL_DATE_TIME ( #102, #54 ) ;
#8 = LOCAL_TIME ( 11, 22, 40.00000000000000000, #28 ) ;
#9 = PERSON_AND_ORGANIZATION_ROLE ( 'design_supplier' ) ;
#10 = CC_DESIGN_PERSON_AND_ORGANIZATION_ASSIGNMENT ( #67, #9, ( #85 ) ) ;
#11 = CYLINDRICAL_SURFACE ( 'NONE', #136, 0.4749999999999994782 ) ;
#12 = ORIENTED_EDGE ( 'NONE', *, *, #178, .T. ) ;
#13 = ADVANCED_FACE ( 'NONE', ( #212, #2 ), #169, .T. ) ;
#14 = PERSON_AND_ORGANIZATION_ROLE ( 'classification_officer' ) ;
#15 = EDGE_LOOP ( 'NONE', ( #154 ) ) ;
#16 = CARTESIAN_POINT ( 'NONE',  ( 2.478951750578624367E-14, -8.731519772946173392E-16, 7.099999999999999645 ) ) ;
#17 = AXIS2_PLACEMENT_3D ( 'NONE', #164, #59, #94 ) ;
#18 = CC_DESIGN_PERSON_AND_ORGANIZATION_ASSIGNMENT ( #99, #215, ( #85 ) ) ;
#19 = VERTEX_POINT ( 'NONE', #158 ) ;
#20 = PLANE ( 'NONE',  #153 ) ;
#21 = FACE_OUTER_BOUND ( 'NONE', #71, .T. ) ;
#22 = AXIS2_PLACEMENT_3D ( 'NONE', #193, #106, #109 ) ;
#23 = APPLICATION_CONTEXT ( 'configuration controlled 3d designs of mechanical parts and assemblies' ) ;
#24 = ADVANCED_FACE ( 'NONE', ( #21, #62 ), #209, .T. ) ;
#25 = DIRECTION ( 'NONE',  ( -3.491481338843133355E-15, 1.224646799147353207E-16, -1.000000000000000000 ) ) ;
#26 =( NAMED_UNIT ( * ) PLANE_ANGLE_UNIT ( ) SI_UNIT ( $, .RADIAN. ) );
#27 = PRODUCT_DEFINITION_SHAPE ( 'NONE', 'NONE',  #146 ) ;
#28 = COORDINATED_UNIVERSAL_TIME_OFFSET ( 1, 0, .AHEAD. ) ;
#29 = CIRCLE ( 'NONE', #100, 1.499999999999999778 ) ;
#30 = CARTESIAN_POINT ( 'NONE',  ( 0.0000000000000000000, 0.0000000000000000000, 0.0000000000000000000 ) ) ;
#31 = APPROVAL ( #198, 'UNSPECIFIED' ) ;
#32 = APPROVAL_ROLE ( '' ) ;
#33 = CONICAL_SURFACE ( 'NONE', #22, 1.499999999999995559, 1.221730476396026388 ) ;
#34 = AXIS2_PLACEMENT_3D ( 'NONE', #138, #25, #76 ) ;
#35 = ORIENTED_EDGE ( 'NONE', *, *, #113, .F. ) ;
#36 = EDGE_LOOP ( 'NONE', ( #134 ) ) ;
#37 = DATE_TIME_ROLE ( 'classification_date' ) ;
#38 = AXIS2_PLACEMENT_3D ( 'NONE', #30, #65, #128 ) ;
#39 = ORIENTED_EDGE ( 'NONE', *, *, #155, .F. ) ;
#40 = ADVANCED_FACE ( 'NONE', ( #208 ), #43, .F. ) ;
#41 = ADVANCED_BREP_SHAPE_REPRESENTATION ( '962875', ( #152, #82, #38 ), #49 ) ;
#42 = FACE_BOUND ( 'NONE', #119, .T. ) ;
#43 = PLANE ( 'NONE',  #144 ) ;
#44 = CARTESIAN_POINT ( 'NONE',  ( 3.814566289978341207E-14, -1.343590530892159391E-15, 10.92535207775808637 ) ) ;
#45 = SHAPE_DEFINITION_REPRESENTATION ( #27, #41 ) ;
#46 = SECURITY_CLASSIFICATION ( '', '', #104 ) ;
#47 =( NAMED_UNIT ( * ) SI_UNIT ( $, .STERADIAN. ) SOLID_ANGLE_UNIT ( ) );
#48 = PERSON_AND_ORGANIZATION_ROLE ( 'design_owner' ) ;
#49 =( GEOMETRIC_REPRESENTATION_CONTEXT ( 3 ) GLOBAL_UNCERTAINTY_ASSIGNED_CONTEXT ( ( #55 ) ) GLOBAL_UNIT_ASSIGNED_CONTEXT ( ( #84, #26, #47 ) ) REPRESENTATION_CONTEXT ( 'NONE', 'WORKASPACE' ) );
#50 = VERTEX_POINT ( 'NONE', #214 ) ;
#51 = ADVANCED_FACE ( 'NONE', ( #96 ), #33, .T. ) ;
#52 = AXIS2_PLACEMENT_3D ( 'NONE', #44, #108, #177 ) ;
#53 = EDGE_LOOP ( 'NONE', ( #156 ) ) ;
#54 = APPROVAL ( #4, 'UNSPECIFIED' ) ;
#55 = UNCERTAINTY_MEASURE_WITH_UNIT (LENGTH_MEASURE( 1.000000000000000082E-05 ), #84, 'distance_accuracy_value', 'NONE');
#56 = EDGE_LOOP ( 'NONE', ( #203 ) ) ;
#57 = LOCAL_TIME ( 11, 22, 40.00000000000000000, #66 ) ;
#58 = DIRECTION ( 'NONE',  ( 0.0000000000000000000, 1.000000000000000000, 0.0000000000000000000 ) ) ;
#59 = DIRECTION ( 'NONE',  ( -3.491481338843133355E-15, 1.224646799147353207E-16, -1.000000000000000000 ) ) ;
#60 = AXIS2_PLACEMENT_3D ( 'NONE', #3, #125, #58 ) ;
#61 = CC_DESIGN_APPROVAL ( #133, ( #46 ) ) ;
#62 = FACE_OUTER_BOUND ( 'NONE', #56, .T. ) ;
#63 = APPLICATION_CONTEXT ( 'configuration controlled 3d designs of mechanical parts and assemblies' ) ;
#64 = CARTESIAN_POINT ( 'NONE',  ( 1.316288464743861212E-13, 1.499999999999995337, 37.69999999999999574 ) ) ;
#65 = DIRECTION ( 'NONE',  ( 0.0000000000000000000, 0.0000000000000000000, 1.000000000000000000 ) ) ;
#66 = COORDINATED_UNIVERSAL_TIME_OFFSET ( 1, 0, .AHEAD. ) ;
#67 = PERSON_AND_ORGANIZATION ( #199, #161 ) ;
#68 = PRODUCT_RELATED_PRODUCT_CATEGORY ( 'detail', '', ( #163 ) ) ;
#69 = CIRCLE ( 'NONE', #60, 0.4749999999999994782 ) ;
#70 = ORIENTED_EDGE ( 'NONE', *, *, #118, .F. ) ;
#71 = EDGE_LOOP ( 'NONE', ( #70 ) ) ;
#72 = COORDINATED_UNIVERSAL_TIME_OFFSET ( 1, 0, .AHEAD. ) ;
#73 = ORIENTED_EDGE ( 'NONE', *, *, #205, .T. ) ;
#74 = EDGE_LOOP ( 'NONE', ( #39 ) ) ;
#75 = VERTEX_POINT ( 'NONE', #165 ) ;
#76 = DIRECTION ( 'NONE',  ( 0.0000000000000000000, 1.000000000000000000, 0.0000000000000000000 ) ) ;
#77 = DIRECTION ( 'NONE',  ( 3.491481338843133355E-15, -1.229791517316362731E-16, 1.000000000000000000 ) ) ;
#78 = DIRECTION ( 'NONE',  ( 0.0000000000000000000, 1.000000000000000000, 0.0000000000000000000 ) ) ;
#79 = EDGE_CURVE ( 'NONE', #93, #93, #29, .T. ) ;
#80 = DIRECTION ( 'NONE',  ( -4.275831445896958607E-31, -1.000000000000000000, -1.224646799147353207E-16 ) ) ;
#81 = CALENDAR_DATE ( 2021, 28, 10 ) ;
#82 = MANIFOLD_SOLID_BREP ( 'Corps-Déplacer/Copier1[2]', #112 ) ;
#83 = PERSON_AND_ORGANIZATION ( #199, #161 ) ;
#84 =( LENGTH_UNIT ( ) NAMED_UNIT ( * ) SI_UNIT ( .MILLI., .METRE. ) );
#85 = PRODUCT_DEFINITION_FORMATION_WITH_SPECIFIED_SOURCE ( 'ANY', '', #163, .NOT_KNOWN. ) ;
#86 = VERTEX_POINT ( 'NONE', #127 ) ;
#87 = APPROVAL_STATUS ( 'not_yet_approved' ) ;
#88 = ORIENTED_EDGE ( 'NONE', *, *, #178, .F. ) ;
#89 = CARTESIAN_POINT ( 'NONE',  ( 0.0000000000000000000, 0.0000000000000000000, 0.0000000000000000000 ) ) ;
#90 = DIRECTION ( 'NONE',  ( -3.491481338843133355E-15, 1.229791517316362731E-16, -1.000000000000000000 ) ) ;
#91 = EDGE_LOOP ( 'NONE', ( #73 ) ) ;
#92 = CALENDAR_DATE ( 2021, 28, 10 ) ;
#93 = VERTEX_POINT ( 'NONE', #64 ) ;
#94 = DIRECTION ( 'NONE',  ( 4.275831445896959482E-31, 1.000000000000000000, 1.224646799147353207E-16 ) ) ;
#95 = CARTESIAN_POINT ( 'NONE',  ( 1.326762908760390423E-13, 8.998558695971077224E-33, 38.00000000000000000 ) ) ;
#96 = FACE_OUTER_BOUND ( 'NONE', #151, .T. ) ;
#97 = DIRECTION ( 'NONE',  ( 3.491481338843133355E-15, -1.224646799147353207E-16, 1.000000000000000000 ) ) ;
#98 = PERSON_AND_ORGANIZATION ( #199, #161 ) ;
#99 = PERSON_AND_ORGANIZATION ( #199, #161 ) ;
#100 = AXIS2_PLACEMENT_3D ( 'NONE', #124, #159, #137 ) ;
#101 = CALENDAR_DATE ( 2021, 28, 10 ) ;
#102 = DATE_AND_TIME ( #81, #57 ) ;
#103 = CC_DESIGN_PERSON_AND_ORGANIZATION_ASSIGNMENT ( #98, #48, ( #163 ) ) ;
#104 = SECURITY_CLASSIFICATION_LEVEL ( 'unclassified' ) ;
#105 = AXIS2_PLACEMENT_3D ( 'NONE', #180, #97, #80 ) ;
#106 = DIRECTION ( 'NONE',  ( 3.491481338843133355E-15, -1.224646799147353207E-16, 1.000000000000000000 ) ) ;
#107 = CARTESIAN_POINT ( 'NONE',  ( 3.814566289978341207E-14, -1.343590530892159391E-15, 10.92535207775808637 ) ) ;
#108 = DIRECTION ( 'NONE',  ( -3.491481338843133355E-15, 1.229791517316362731E-16, -1.000000000000000000 ) ) ;
#109 = DIRECTION ( 'NONE',  ( -5.135813185032644414E-31, -1.000000000000000000, -1.445602896647343601E-16 ) ) ;
#110 = APPROVAL_PERSON_ORGANIZATION ( #114, #31, #32 ) ;
#111 = PLANE ( 'NONE',  #105 ) ;
#112 = CLOSED_SHELL ( 'NONE', ( #207, #6, #51 ) ) ;
#113 = EDGE_CURVE ( 'NONE', #122, #122, #221, .T. ) ;
#114 = PERSON_AND_ORGANIZATION ( #199, #161 ) ;
#115 = CALENDAR_DATE ( 2021, 28, 10 ) ;
#116 = CC_DESIGN_DATE_AND_TIME_ASSIGNMENT ( #184, #145, ( #146 ) ) ;
#117 = APPROVAL_ROLE ( '' ) ;
#118 = EDGE_CURVE ( 'NONE', #19, #19, #213, .T. ) ;
#119 = EDGE_LOOP ( 'NONE', ( #88 ) ) ;
#120 = DESIGN_CONTEXT ( 'detailed design', #63, 'design' ) ;
#121 = DATE_AND_TIME ( #150, #175 ) ;
#122 = VERTEX_POINT ( 'NONE', #126 ) ;
#123 = DIRECTION ( 'NONE',  ( 3.491481338843133355E-15, -1.224646799147353207E-16, 1.000000000000000000 ) ) ;
#124 = CARTESIAN_POINT ( 'NONE',  ( 1.316288464743861212E-13, -4.616918432785521081E-15, 37.69999999999999574 ) ) ;
#125 = DIRECTION ( 'NONE',  ( -3.491481338843133355E-15, 1.229791517316362731E-16, -1.000000000000000000 ) ) ;
#126 = CARTESIAN_POINT ( 'NONE',  ( 6.036277583965411273E-16, -0.4749999999999994782, 0.1728858612764480607 ) ) ;
#127 = CARTESIAN_POINT ( 'NONE',  ( 1.326762908760390423E-13, 1.199999999999995293, 38.00000000000000000 ) ) ;
#128 = DIRECTION ( 'NONE',  ( 1.000000000000000000, 0.0000000000000000000, 0.0000000000000000000 ) ) ;
#129 = AXIS2_PLACEMENT_3D ( 'NONE', #194, #142, #1 ) ;
#130 = PERSON_AND_ORGANIZATION ( #199, #161 ) ;
#131 = ADVANCED_FACE ( 'NONE', ( #176 ), #20, .F. ) ;
#132 = ADVANCED_FACE ( 'NONE', ( #42, #162 ), #5, .T. ) ;
#133 = APPROVAL ( #87, 'UNSPECIFIED' ) ;
#134 = ORIENTED_EDGE ( 'NONE', *, *, #155, .T. ) ;
#135 = CC_DESIGN_APPROVAL ( #31, ( #85 ) ) ;
#136 = AXIS2_PLACEMENT_3D ( 'NONE', #89, #90, #219 ) ;
#137 = DIRECTION ( 'NONE',  ( 0.0000000000000000000, 1.000000000000000000, 0.0000000000000000000 ) ) ;
#138 = CARTESIAN_POINT ( 'NONE',  ( 1.326762908760390423E-13, -4.653657836759941941E-15, 38.00000000000000000 ) ) ;
#139 = DIRECTION ( 'NONE',  ( 0.0000000000000000000, -1.000000000000000000, 0.0000000000000000000 ) ) ;
#140 = CARTESIAN_POINT ( 'NONE',  ( 1.326762908760390423E-13, -4.653657836759941941E-15, 38.00000000000000000 ) ) ;
#141 = CC_DESIGN_PERSON_AND_ORGANIZATION_ASSIGNMENT ( #83, #185, ( #146 ) ) ;
#142 = DIRECTION ( 'NONE',  ( -3.491481338843133355E-15, 1.224646799147353207E-16, -1.000000000000000000 ) ) ;
#143 = APPROVAL_DATE_TIME ( #121, #133 ) ;
#144 = AXIS2_PLACEMENT_3D ( 'NONE', #192, #123, #223 ) ;
#145 = DATE_TIME_ROLE ( 'creation_date' ) ;
#146 = PRODUCT_DEFINITION ( 'UNKNOWN', '', #85, #120 ) ;
#147 = CC_DESIGN_SECURITY_CLASSIFICATION ( #46, ( #85 ) ) ;
#148 = DATE_AND_TIME ( #101, #8 ) ;
#149 = CIRCLE ( 'NONE', #183, 0.4749999999999994782 ) ;
#150 = CALENDAR_DATE ( 2021, 28, 10 ) ;
#151 = EDGE_LOOP ( 'NONE', ( #217 ) ) ;
#152 = MANIFOLD_SOLID_BREP ( 'Corps-Déplacer/Copier1[1]', #222 ) ;
#153 = AXIS2_PLACEMENT_3D ( 'NONE', #95, #172, #160 ) ;
#154 = ORIENTED_EDGE ( 'NONE', *, *, #205, .F. ) ;
#155 = EDGE_CURVE ( 'NONE', #75, #75, #69, .T. ) ;
#156 = ORIENTED_EDGE ( 'NONE', *, *, #79, .F. ) ;
#157 = CC_DESIGN_DATE_AND_TIME_ASSIGNMENT ( #201, #37, ( #46 ) ) ;
#158 = CARTESIAN_POINT ( 'NONE',  ( 3.814566289978341207E-14, 1.499999999999997113, 10.92535207775808637 ) ) ;
#159 = DIRECTION ( 'NONE',  ( -3.491481338843133355E-15, 1.224646799147353207E-16, -1.000000000000000000 ) ) ;
#160 = DIRECTION ( 'NONE',  ( 4.275831445896958607E-31, 1.000000000000000000, 1.224646799147353207E-16 ) ) ;
#161 = ORGANIZATION ( 'UNSPECIFIED', 'UNSPECIFIED', '' ) ;
#162 = FACE_OUTER_BOUND ( 'NONE', #191, .T. ) ;
#163 = PRODUCT ( '962875', '962875', '', ( #200 ) ) ;
#164 = CARTESIAN_POINT ( 'NONE',  ( 0.0000000000000000000, 0.0000000000000000000, 0.0000000000000000000 ) ) ;
#165 = CARTESIAN_POINT ( 'NONE',  ( 2.478951750578624367E-14, 0.4749999999999985900, 7.099999999999999645 ) ) ;
#166 = APPROVAL_DATE_TIME ( #148, #31 ) ;
#167 = COORDINATED_UNIVERSAL_TIME_OFFSET ( 1, 0, .AHEAD. ) ;
#168 = LOCAL_TIME ( 11, 22, 40.00000000000000000, #218 ) ;
#169 = CONICAL_SURFACE ( 'NONE', #34, 1.199999999999999956, 0.7853981633974453924 ) ;
#170 = FACE_OUTER_BOUND ( 'NONE', #188, .T. ) ;
#171 = ORIENTED_EDGE ( 'NONE', *, *, #118, .T. ) ;
#172 = DIRECTION ( 'NONE',  ( -3.491481338843133355E-15, 1.224646799147353207E-16, -1.000000000000000000 ) ) ;
#173 = CIRCLE ( 'NONE', #186, 1.199999999999999956 ) ;
#174 = DIRECTION ( 'NONE',  ( -3.491481338843133355E-15, 1.224646799147353207E-16, -1.000000000000000000 ) ) ;
#175 = LOCAL_TIME ( 11, 22, 40.00000000000000000, #72 ) ;
#176 = FACE_OUTER_BOUND ( 'NONE', #15, .T. ) ;
#177 = DIRECTION ( 'NONE',  ( 0.0000000000000000000, 1.000000000000000000, 0.0000000000000000000 ) ) ;
#178 = EDGE_CURVE ( 'NONE', #50, #50, #149, .T. ) ;
#179 = CC_DESIGN_APPROVAL ( #54, ( #146 ) ) ;
#180 = CARTESIAN_POINT ( 'NONE',  ( 2.478951750578624367E-14, 1.124819836996389237E-32, 7.099999999999999645 ) ) ;
#181 = APPLICATION_PROTOCOL_DEFINITION ( 'international standard', 'config_control_design', 1994, #63 ) ;
#182 = APPLICATION_PROTOCOL_DEFINITION ( 'international standard', 'config_control_design', 1994, #23 ) ;
#183 = AXIS2_PLACEMENT_3D ( 'NONE', #16, #210, #78 ) ;
#184 = DATE_AND_TIME ( #115, #196 ) ;
#185 = PERSON_AND_ORGANIZATION_ROLE ( 'creator' ) ;
#186 = AXIS2_PLACEMENT_3D ( 'NONE', #140, #174, #211 ) ;
#187 = EDGE_LOOP ( 'NONE', ( #12 ) ) ;
#188 = EDGE_LOOP ( 'NONE', ( #35 ) ) ;
#189 = APPROVAL_PERSON_ORGANIZATION ( #130, #54, #117 ) ;
#190 = APPROVAL_PERSON_ORGANIZATION ( #216, #133, #220 ) ;
#191 = EDGE_LOOP ( 'NONE', ( #171 ) ) ;
#192 = CARTESIAN_POINT ( 'NONE',  ( 2.478951750578624367E-14, 1.124819836996389237E-32, 7.099999999999999645 ) ) ;
#193 = CARTESIAN_POINT ( 'NONE',  ( 1.906192921252232855E-15, -6.686024735685322183E-17, 0.5459553513993090634 ) ) ;
#194 = CARTESIAN_POINT ( 'NONE',  ( 6.036277583965413245E-16, -2.117241166300354880E-17, 0.1728858612764481162 ) ) ;
#195 = FACE_OUTER_BOUND ( 'NONE', #74, .T. ) ;
#196 = LOCAL_TIME ( 11, 22, 40.00000000000000000, #167 ) ;
#197 = CC_DESIGN_PERSON_AND_ORGANIZATION_ASSIGNMENT ( #202, #14, ( #46 ) ) ;
#198 = APPROVAL_STATUS ( 'not_yet_approved' ) ;
#199 = PERSON ( 'UNSPECIFIED', 'UNSPECIFIED', 'UNSPECIFIED', ('UNSPECIFIED'), ('UNSPECIFIED'), ('UNSPECIFIED') ) ;
#200 = MECHANICAL_CONTEXT ( 'NONE', #23, 'mechanical' ) ;
#201 = DATE_AND_TIME ( #92, #168 ) ;
#202 = PERSON_AND_ORGANIZATION ( #199, #161 ) ;
#203 = ORIENTED_EDGE ( 'NONE', *, *, #79, .T. ) ;
#204 = FACE_OUTER_BOUND ( 'NONE', #36, .T. ) ;
#205 = EDGE_CURVE ( 'NONE', #86, #86, #173, .T. ) ;
#206 = AXIS2_PLACEMENT_3D ( 'NONE', #107, #77, #139 ) ;
#207 = ADVANCED_FACE ( 'NONE', ( #195 ), #111, .T. ) ;
#208 = FACE_OUTER_BOUND ( 'NONE', #187, .T. ) ;
#209 = CYLINDRICAL_SURFACE ( 'NONE', #17, 1.499999999999998002 ) ;
#210 = DIRECTION ( 'NONE',  ( -3.491481338843133355E-15, 1.229791517316362731E-16, -1.000000000000000000 ) ) ;
#211 = DIRECTION ( 'NONE',  ( 0.0000000000000000000, 1.000000000000000000, 0.0000000000000000000 ) ) ;
#212 = FACE_OUTER_BOUND ( 'NONE', #53, .T. ) ;
#213 = CIRCLE ( 'NONE', #52, 1.499999999999998446 ) ;
#214 = CARTESIAN_POINT ( 'NONE',  ( 2.478951750578624367E-14, 0.4749999999999985900, 7.099999999999999645 ) ) ;
#215 = PERSON_AND_ORGANIZATION_ROLE ( 'creator' ) ;
#216 = PERSON_AND_ORGANIZATION ( #199, #161 ) ;
#217 = ORIENTED_EDGE ( 'NONE', *, *, #113, .T. ) ;
#218 = COORDINATED_UNIVERSAL_TIME_OFFSET ( 1, 0, .AHEAD. ) ;
#219 = DIRECTION ( 'NONE',  ( 4.293794133377661370E-31, 1.000000000000000000, 1.229791517316362731E-16 ) ) ;
#220 = APPROVAL_ROLE ( '' ) ;
#221 = CIRCLE ( 'NONE', #129, 0.4749999999999994782 ) ;
#222 = CLOSED_SHELL ( 'NONE', ( #24, #13, #131, #132, #40 ) ) ;
#223 = DIRECTION ( 'NONE',  ( -4.275831445896958607E-31, -1.000000000000000000, -1.224646799147353207E-16 ) ) ;
ENDSEC;
END-ISO-10303-21;
