ISO-10303-21;
HEADER;
FILE_DESCRIPTION (( 'STEP AP203' ),
    '1' );
FILE_NAME ('962874.step',
    '2021-10-28T09:22:39',
    ( '' ),
    ( '' ),
    'SwSTEP 2.0',
    'SolidWorks 2019',
    '' );
FILE_SCHEMA (( 'CONFIG_CONTROL_DESIGN' ));
ENDSEC;

DATA;
#1 = CARTESIAN_POINT ( 'NONE',  ( 3.821081482853461403E-14, -1.345885353104830220E-15, 10.94401233179593014 ) ) ;
#2 = DIRECTION ( 'NONE',  ( 4.275831445896958607E-31, 1.000000000000000000, 1.224646799147353207E-16 ) ) ;
#3 = UNCERTAINTY_MEASURE_WITH_UNIT (LENGTH_MEASURE( 1.000000000000000082E-05 ), #212, 'distance_accuracy_value', 'NONE');
#4 = FACE_OUTER_BOUND ( 'NONE', #11, .T. ) ;
#5 = VERTEX_POINT ( 'NONE', #145 ) ;
#6 = DIRECTION ( 'NONE',  ( 0.0000000000000000000, 1.000000000000000000, 0.0000000000000000000 ) ) ;
#7 = APPROVAL_ROLE ( '' ) ;
#8 = CALENDAR_DATE ( 2021, 28, 10 ) ;
#9 = EDGE_LOOP ( 'NONE', ( #135 ) ) ;
#10 = APPROVAL_PERSON_ORGANIZATION ( #170, #176, #27 ) ;
#11 = EDGE_LOOP ( 'NONE', ( #141 ) ) ;
#12 = ADVANCED_FACE ( 'NONE', ( #222, #127 ), #18, .T. ) ;
#13 = EDGE_LOOP ( 'NONE', ( #192 ) ) ;
#14 = AXIS2_PLACEMENT_3D ( 'NONE', #183, #95, #193 ) ;
#15 = CIRCLE ( 'NONE', #16, 0.4699999999999994738 ) ;
#16 = AXIS2_PLACEMENT_3D ( 'NONE', #122, #107, #105 ) ;
#17 = ORIENTED_EDGE ( 'NONE', *, *, #62, .T. ) ;
#18 = CYLINDRICAL_SURFACE ( 'NONE', #181, 0.4699999999999994738 ) ;
#19 = DIRECTION ( 'NONE',  ( 0.0000000000000000000, 1.000000000000000000, 0.0000000000000000000 ) ) ;
#20 = PRODUCT_DEFINITION ( 'UNKNOWN', '', #140, #174 ) ;
#21 = FACE_OUTER_BOUND ( 'NONE', #87, .T. ) ;
#22 = DIRECTION ( 'NONE',  ( -4.097723285930293875E-31, -1.000000000000000000, -1.153406566473942246E-16 ) ) ;
#23 = APPLICATION_CONTEXT ( 'configuration controlled 3d designs of mechanical parts and assemblies' ) ;
#24 = EDGE_CURVE ( 'NONE', #94, #94, #83, .T. ) ;
#25 = PERSON_AND_ORGANIZATION ( #160, #177 ) ;
#26 = CC_DESIGN_DATE_AND_TIME_ASSIGNMENT ( #80, #64, ( #20 ) ) ;
#27 = APPROVAL_ROLE ( '' ) ;
#28 = LOCAL_TIME ( 11, 22, 39.00000000000000000, #215 ) ;
#29 = CONICAL_SURFACE ( 'NONE', #159, 1.499999999999995559, 1.221730476396026388 ) ;
#30 = CC_DESIGN_APPROVAL ( #39, ( #41 ) ) ;
#31 = CARTESIAN_POINT ( 'NONE',  ( 5.972737819923669718E-16, -0.4699999999999994738, 0.1710660101051170445 ) ) ;
#32 = CALENDAR_DATE ( 2021, 28, 10 ) ;
#33 = ORIENTED_EDGE ( 'NONE', *, *, #223, .F. ) ;
#34 = CC_DESIGN_DATE_AND_TIME_ASSIGNMENT ( #117, #50, ( #41 ) ) ;
#35 = ADVANCED_FACE ( 'NONE', ( #106 ), #29, .T. ) ;
#36 = CONICAL_SURFACE ( 'NONE', #196, 1.199999999999999956, 0.7853981633974453924 ) ;
#37 = FACE_BOUND ( 'NONE', #190, .T. ) ;
#38 = DIRECTION ( 'NONE',  ( 0.0000000000000000000, 1.000000000000000000, 0.0000000000000000000 ) ) ;
#39 = APPROVAL ( #89, 'UNSPECIFIED' ) ;
#40 = CARTESIAN_POINT ( 'NONE',  ( 2.478951750578624367E-14, 1.124819836996389237E-32, 7.099999999999999645 ) ) ;
#41 = SECURITY_CLASSIFICATION ( '', '', #217 ) ;
#42 = CARTESIAN_POINT ( 'NONE',  ( 5.972737819923671690E-16, -2.094954417181403555E-17, 0.1710660101051171000 ) ) ;
#43 = CYLINDRICAL_SURFACE ( 'NONE', #14, 1.499999999999998002 ) ;
#44 = DIRECTION ( 'NONE',  ( 0.0000000000000000000, 0.0000000000000000000, 1.000000000000000000 ) ) ;
#45 = PERSON_AND_ORGANIZATION_ROLE ( 'design_owner' ) ;
#46 = CARTESIAN_POINT ( 'NONE',  ( 2.478951750578624367E-14, 0.4699999999999986411, 7.099999999999999645 ) ) ;
#47 = ADVANCED_BREP_SHAPE_REPRESENTATION ( '962874', ( #146, #213, #133 ), #138 ) ;
#48 = EDGE_LOOP ( 'NONE', ( #17 ) ) ;
#49 = CC_DESIGN_PERSON_AND_ORGANIZATION_ASSIGNMENT ( #219, #134, ( #41 ) ) ;
#50 = DATE_TIME_ROLE ( 'classification_date' ) ;
#51 = ORIENTED_EDGE ( 'NONE', *, *, #67, .T. ) ;
#52 = ORIENTED_EDGE ( 'NONE', *, *, #151, .F. ) ;
#53 = SHAPE_DEFINITION_REPRESENTATION ( #121, #47 ) ;
#54 = DIRECTION ( 'NONE',  ( 4.293794133377663121E-31, 1.000000000000000000, 1.229791517316362731E-16 ) ) ;
#55 = PLANE ( 'NONE',  #201 ) ;
#56 = DIRECTION ( 'NONE',  ( -3.491481338843133355E-15, 1.229791517316362731E-16, -1.000000000000000000 ) ) ;
#57 = CC_DESIGN_APPROVAL ( #203, ( #20 ) ) ;
#58 = CIRCLE ( 'NONE', #189, 0.4699999999999994738 ) ;
#59 = DIRECTION ( 'NONE',  ( 3.491481338843133355E-15, -1.224646799147353207E-16, 1.000000000000000000 ) ) ;
#60 = CARTESIAN_POINT ( 'NONE',  ( 1.326762908760390423E-13, 8.998558695971077224E-33, 38.00000000000000000 ) ) ;
#61 = MECHANICAL_CONTEXT ( 'NONE', #166, 'mechanical' ) ;
#62 = EDGE_CURVE ( 'NONE', #5, #5, #172, .T. ) ;
#63 = CARTESIAN_POINT ( 'NONE',  ( 0.0000000000000000000, 0.0000000000000000000, 0.0000000000000000000 ) ) ;
#64 = DATE_TIME_ROLE ( 'creation_date' ) ;
#65 = PERSON_AND_ORGANIZATION ( #160, #177 ) ;
#66 = CARTESIAN_POINT ( 'NONE',  ( 1.326762908760390423E-13, 1.199999999999995293, 38.00000000000000000 ) ) ;
#67 = EDGE_CURVE ( 'NONE', #169, #169, #58, .T. ) ;
#68 = ORIENTED_EDGE ( 'NONE', *, *, #115, .F. ) ;
#69 = EDGE_LOOP ( 'NONE', ( #52 ) ) ;
#70 = AXIS2_PLACEMENT_3D ( 'NONE', #207, #73, #38 ) ;
#71 = CALENDAR_DATE ( 2021, 28, 10 ) ;
#72 = DIRECTION ( 'NONE',  ( 3.491481338843133355E-15, -1.224646799147353207E-16, 1.000000000000000000 ) ) ;
#73 = DIRECTION ( 'NONE',  ( -3.491481338843133355E-15, 1.224646799147353207E-16, -1.000000000000000000 ) ) ;
#74 = DIRECTION ( 'NONE',  ( -3.491481338843133355E-15, 1.229791517316362731E-16, -1.000000000000000000 ) ) ;
#75 = ADVANCED_FACE ( 'NONE', ( #110 ), #144, .F. ) ;
#76 = FACE_OUTER_BOUND ( 'NONE', #86, .T. ) ;
#77 = AXIS2_PLACEMENT_3D ( 'NONE', #90, #209, #206 ) ;
#78 = FACE_OUTER_BOUND ( 'NONE', #69, .T. ) ;
#79 = AXIS2_PLACEMENT_3D ( 'NONE', #60, #128, #2 ) ;
#80 = DATE_AND_TIME ( #98, #28 ) ;
#81 = ADVANCED_FACE ( 'NONE', ( #37, #161 ), #148, .T. ) ;
#82 = DATE_AND_TIME ( #8, #221 ) ;
#83 = CIRCLE ( 'NONE', #77, 1.499999999999998446 ) ;
#84 = COORDINATED_UNIVERSAL_TIME_OFFSET ( 1, 0, .AHEAD. ) ;
#85 = APPROVAL_DATE_TIME ( #214, #203 ) ;
#86 = EDGE_LOOP ( 'NONE', ( #68 ) ) ;
#87 = EDGE_LOOP ( 'NONE', ( #102 ) ) ;
#88 = CC_DESIGN_SECURITY_CLASSIFICATION ( #41, ( #140 ) ) ;
#89 = APPROVAL_STATUS ( 'not_yet_approved' ) ;
#90 = CARTESIAN_POINT ( 'NONE',  ( 3.821081482853461403E-14, -1.345885353104830220E-15, 10.94401233179593014 ) ) ;
#91 = CARTESIAN_POINT ( 'NONE',  ( 2.478951750578624367E-14, -8.731519772946173392E-16, 7.099999999999999645 ) ) ;
#92 = FACE_BOUND ( 'NONE', #120, .T. ) ;
#93 = CC_DESIGN_PERSON_AND_ORGANIZATION_ASSIGNMENT ( #132, #173, ( #140 ) ) ;
#94 = VERTEX_POINT ( 'NONE', #164 ) ;
#95 = DIRECTION ( 'NONE',  ( -3.491481338843133355E-15, 1.224646799147353207E-16, -1.000000000000000000 ) ) ;
#96 = APPLICATION_PROTOCOL_DEFINITION ( 'international standard', 'config_control_design', 1994, #166 ) ;
#97 = VERTEX_POINT ( 'NONE', #66 ) ;
#98 = CALENDAR_DATE ( 2021, 28, 10 ) ;
#99 = CIRCLE ( 'NONE', #70, 1.199999999999999956 ) ;
#100 = VERTEX_POINT ( 'NONE', #113 ) ;
#101 = AXIS2_PLACEMENT_3D ( 'NONE', #124, #143, #19 ) ;
#102 = ORIENTED_EDGE ( 'NONE', *, *, #62, .F. ) ;
#103 = APPROVAL_ROLE ( '' ) ;
#104 = ORIENTED_EDGE ( 'NONE', *, *, #67, .F. ) ;
#105 = DIRECTION ( 'NONE',  ( 0.0000000000000000000, 1.000000000000000000, 0.0000000000000000000 ) ) ;
#106 = FACE_OUTER_BOUND ( 'NONE', #202, .T. ) ;
#107 = DIRECTION ( 'NONE',  ( -3.491481338843133355E-15, 1.229791517316362731E-16, -1.000000000000000000 ) ) ;
#108 = CC_DESIGN_PERSON_AND_ORGANIZATION_ASSIGNMENT ( #25, #155, ( #20 ) ) ;
#109 = AXIS2_PLACEMENT_3D ( 'NONE', #42, #182, #22 ) ;
#110 = FACE_OUTER_BOUND ( 'NONE', #205, .T. ) ;
#111 = PRODUCT_RELATED_PRODUCT_CATEGORY ( 'detail', '', ( #168 ) ) ;
#112 = CARTESIAN_POINT ( 'NONE',  ( 1.906192921252232855E-15, -6.686024735685322183E-17, 0.5459553513993090634 ) ) ;
#113 = CARTESIAN_POINT ( 'NONE',  ( 2.478951750578624367E-14, 0.4699999999999986411, 7.099999999999999645 ) ) ;
#114 = LOCAL_TIME ( 11, 22, 39.00000000000000000, #119 ) ;
#115 = EDGE_CURVE ( 'NONE', #100, #100, #15, .T. ) ;
#116 =( NAMED_UNIT ( * ) PLANE_ANGLE_UNIT ( ) SI_UNIT ( $, .RADIAN. ) );
#117 = DATE_AND_TIME ( #32, #197 ) ;
#118 = ORIENTED_EDGE ( 'NONE', *, *, #223, .T. ) ;
#119 = COORDINATED_UNIVERSAL_TIME_OFFSET ( 1, 0, .AHEAD. ) ;
#120 = EDGE_LOOP ( 'NONE', ( #216 ) ) ;
#121 = PRODUCT_DEFINITION_SHAPE ( 'NONE', 'NONE',  #20 ) ;
#122 = CARTESIAN_POINT ( 'NONE',  ( 2.478951750578624367E-14, -8.731519772946173392E-16, 7.099999999999999645 ) ) ;
#123 = ADVANCED_FACE ( 'NONE', ( #76 ), #55, .T. ) ;
#124 = CARTESIAN_POINT ( 'NONE',  ( 1.316288464743861212E-13, -4.616918432785521081E-15, 37.69999999999999574 ) ) ;
#125 = DIRECTION ( 'NONE',  ( -3.491481338843133355E-15, 1.224646799147353207E-16, -1.000000000000000000 ) ) ;
#126 = APPROVAL_PERSON_ORGANIZATION ( #187, #203, #7 ) ;
#127 = FACE_OUTER_BOUND ( 'NONE', #137, .T. ) ;
#128 = DIRECTION ( 'NONE',  ( -3.491481338843133355E-15, 1.224646799147353207E-16, -1.000000000000000000 ) ) ;
#129 = COORDINATED_UNIVERSAL_TIME_OFFSET ( 1, 0, .AHEAD. ) ;
#130 = DIRECTION ( 'NONE',  ( 1.000000000000000000, 0.0000000000000000000, 0.0000000000000000000 ) ) ;
#131 = CALENDAR_DATE ( 2021, 28, 10 ) ;
#132 = PERSON_AND_ORGANIZATION ( #160, #177 ) ;
#133 = AXIS2_PLACEMENT_3D ( 'NONE', #63, #44, #130 ) ;
#134 = PERSON_AND_ORGANIZATION_ROLE ( 'classification_officer' ) ;
#135 = ORIENTED_EDGE ( 'NONE', *, *, #24, .T. ) ;
#136 = ADVANCED_FACE ( 'NONE', ( #4, #180 ), #43, .T. ) ;
#137 = EDGE_LOOP ( 'NONE', ( #33 ) ) ;
#138 =( GEOMETRIC_REPRESENTATION_CONTEXT ( 3 ) GLOBAL_UNCERTAINTY_ASSIGNED_CONTEXT ( ( #3 ) ) GLOBAL_UNIT_ASSIGNED_CONTEXT ( ( #212, #116, #186 ) ) REPRESENTATION_CONTEXT ( 'NONE', 'WORKASPACE' ) );
#139 = CLOSED_SHELL ( 'NONE', ( #123, #12, #35 ) ) ;
#140 = PRODUCT_DEFINITION_FORMATION_WITH_SPECIFIED_SOURCE ( 'ANY', '', #168, .NOT_KNOWN. ) ;
#141 = ORIENTED_EDGE ( 'NONE', *, *, #24, .F. ) ;
#142 = DIRECTION ( 'NONE',  ( 3.491481338843133355E-15, -1.224646799147353207E-16, 1.000000000000000000 ) ) ;
#143 = DIRECTION ( 'NONE',  ( -3.491481338843133355E-15, 1.224646799147353207E-16, -1.000000000000000000 ) ) ;
#144 = PLANE ( 'NONE',  #210 ) ;
#145 = CARTESIAN_POINT ( 'NONE',  ( 1.316288464743861212E-13, 1.499999999999995337, 37.69999999999999574 ) ) ;
#146 = MANIFOLD_SOLID_BREP ( 'Corps-Déplacer/Copier1[1]', #220 ) ;
#147 = APPROVAL_PERSON_ORGANIZATION ( #218, #39, #103 ) ;
#148 = CONICAL_SURFACE ( 'NONE', #188, 1.499999999999998446, 0.2617993877991500740 ) ;
#149 = DIRECTION ( 'NONE',  ( 3.491481338843133355E-15, -1.229791517316362731E-16, 1.000000000000000000 ) ) ;
#150 = APPROVAL_STATUS ( 'not_yet_approved' ) ;
#151 = EDGE_CURVE ( 'NONE', #97, #97, #99, .T. ) ;
#152 = APPROVAL_DATE_TIME ( #82, #176 ) ;
#153 = CC_DESIGN_PERSON_AND_ORGANIZATION_ASSIGNMENT ( #65, #157, ( #140 ) ) ;
#154 = APPROVAL_STATUS ( 'not_yet_approved' ) ;
#155 = PERSON_AND_ORGANIZATION_ROLE ( 'creator' ) ;
#156 = COORDINATED_UNIVERSAL_TIME_OFFSET ( 1, 0, .AHEAD. ) ;
#157 = PERSON_AND_ORGANIZATION_ROLE ( 'design_supplier' ) ;
#158 = CC_DESIGN_APPROVAL ( #176, ( #140 ) ) ;
#159 = AXIS2_PLACEMENT_3D ( 'NONE', #112, #142, #178 ) ;
#160 = PERSON ( 'UNSPECIFIED', 'UNSPECIFIED', 'UNSPECIFIED', ('UNSPECIFIED'), ('UNSPECIFIED'), ('UNSPECIFIED') ) ;
#161 = FACE_OUTER_BOUND ( 'NONE', #9, .T. ) ;
#162 = DIRECTION ( 'NONE',  ( 0.0000000000000000000, -1.000000000000000000, 0.0000000000000000000 ) ) ;
#163 = PLANE ( 'NONE',  #79 ) ;
#164 = CARTESIAN_POINT ( 'NONE',  ( 3.821081482853461403E-14, 1.499999999999997113, 10.94401233179593014 ) ) ;
#165 = CARTESIAN_POINT ( 'NONE',  ( 0.0000000000000000000, 0.0000000000000000000, 0.0000000000000000000 ) ) ;
#166 = APPLICATION_CONTEXT ( 'configuration controlled 3d designs of mechanical parts and assemblies' ) ;
#167 = APPLICATION_PROTOCOL_DEFINITION ( 'international standard', 'config_control_design', 1994, #23 ) ;
#168 = PRODUCT ( '962874', '962874', '', ( #61 ) ) ;
#169 = VERTEX_POINT ( 'NONE', #46 ) ;
#170 = PERSON_AND_ORGANIZATION ( #160, #177 ) ;
#171 = CIRCLE ( 'NONE', #109, 0.4699999999999994738 ) ;
#172 = CIRCLE ( 'NONE', #101, 1.499999999999999778 ) ;
#173 = PERSON_AND_ORGANIZATION_ROLE ( 'creator' ) ;
#174 = DESIGN_CONTEXT ( 'detailed design', #23, 'design' ) ;
#175 = ADVANCED_FACE ( 'NONE', ( #78 ), #163, .F. ) ;
#176 = APPROVAL ( #154, 'UNSPECIFIED' ) ;
#177 = ORGANIZATION ( 'UNSPECIFIED', 'UNSPECIFIED', '' ) ;
#178 = DIRECTION ( 'NONE',  ( -5.135813185032644414E-31, -1.000000000000000000, -1.445602896647343601E-16 ) ) ;
#179 = ADVANCED_FACE ( 'NONE', ( #21, #92 ), #36, .T. ) ;
#180 = FACE_OUTER_BOUND ( 'NONE', #48, .T. ) ;
#181 = AXIS2_PLACEMENT_3D ( 'NONE', #165, #74, #54 ) ;
#182 = DIRECTION ( 'NONE',  ( -3.491481338843133355E-15, 1.224646799147353207E-16, -1.000000000000000000 ) ) ;
#183 = CARTESIAN_POINT ( 'NONE',  ( 0.0000000000000000000, 0.0000000000000000000, 0.0000000000000000000 ) ) ;
#184 = LOCAL_TIME ( 11, 22, 39.00000000000000000, #84 ) ;
#185 = CC_DESIGN_PERSON_AND_ORGANIZATION_ASSIGNMENT ( #200, #45, ( #168 ) ) ;
#186 =( NAMED_UNIT ( * ) SI_UNIT ( $, .STERADIAN. ) SOLID_ANGLE_UNIT ( ) );
#187 = PERSON_AND_ORGANIZATION ( #160, #177 ) ;
#188 = AXIS2_PLACEMENT_3D ( 'NONE', #1, #149, #162 ) ;
#189 = AXIS2_PLACEMENT_3D ( 'NONE', #91, #56, #6 ) ;
#190 = EDGE_LOOP ( 'NONE', ( #104 ) ) ;
#191 = DATE_AND_TIME ( #71, #114 ) ;
#192 = ORIENTED_EDGE ( 'NONE', *, *, #115, .T. ) ;
#193 = DIRECTION ( 'NONE',  ( 4.275831445896959482E-31, 1.000000000000000000, 1.224646799147353207E-16 ) ) ;
#194 = CARTESIAN_POINT ( 'NONE',  ( 2.478951750578624367E-14, 1.124819836996389237E-32, 7.099999999999999645 ) ) ;
#195 = DIRECTION ( 'NONE',  ( 0.0000000000000000000, 1.000000000000000000, 0.0000000000000000000 ) ) ;
#196 = AXIS2_PLACEMENT_3D ( 'NONE', #208, #125, #195 ) ;
#197 = LOCAL_TIME ( 11, 22, 39.00000000000000000, #156 ) ;
#198 = DIRECTION ( 'NONE',  ( -4.275831445896958607E-31, -1.000000000000000000, -1.224646799147353207E-16 ) ) ;
#199 = VERTEX_POINT ( 'NONE', #31 ) ;
#200 = PERSON_AND_ORGANIZATION ( #160, #177 ) ;
#201 = AXIS2_PLACEMENT_3D ( 'NONE', #40, #72, #211 ) ;
#202 = EDGE_LOOP ( 'NONE', ( #118 ) ) ;
#203 = APPROVAL ( #150, 'UNSPECIFIED' ) ;
#204 = APPROVAL_DATE_TIME ( #191, #39 ) ;
#205 = EDGE_LOOP ( 'NONE', ( #51 ) ) ;
#206 = DIRECTION ( 'NONE',  ( 0.0000000000000000000, 1.000000000000000000, 0.0000000000000000000 ) ) ;
#207 = CARTESIAN_POINT ( 'NONE',  ( 1.326762908760390423E-13, -4.653657836759941941E-15, 38.00000000000000000 ) ) ;
#208 = CARTESIAN_POINT ( 'NONE',  ( 1.326762908760390423E-13, -4.653657836759941941E-15, 38.00000000000000000 ) ) ;
#209 = DIRECTION ( 'NONE',  ( -3.491481338843133355E-15, 1.229791517316362731E-16, -1.000000000000000000 ) ) ;
#210 = AXIS2_PLACEMENT_3D ( 'NONE', #194, #59, #198 ) ;
#211 = DIRECTION ( 'NONE',  ( -4.275831445896958607E-31, -1.000000000000000000, -1.224646799147353207E-16 ) ) ;
#212 =( LENGTH_UNIT ( ) NAMED_UNIT ( * ) SI_UNIT ( .MILLI., .METRE. ) );
#213 = MANIFOLD_SOLID_BREP ( 'Corps-Déplacer/Copier1[2]', #139 ) ;
#214 = DATE_AND_TIME ( #131, #184 ) ;
#215 = COORDINATED_UNIVERSAL_TIME_OFFSET ( 1, 0, .AHEAD. ) ;
#216 = ORIENTED_EDGE ( 'NONE', *, *, #151, .T. ) ;
#217 = SECURITY_CLASSIFICATION_LEVEL ( 'unclassified' ) ;
#218 = PERSON_AND_ORGANIZATION ( #160, #177 ) ;
#219 = PERSON_AND_ORGANIZATION ( #160, #177 ) ;
#220 = CLOSED_SHELL ( 'NONE', ( #136, #179, #175, #81, #75 ) ) ;
#221 = LOCAL_TIME ( 11, 22, 39.00000000000000000, #129 ) ;
#222 = FACE_OUTER_BOUND ( 'NONE', #13, .T. ) ;
#223 = EDGE_CURVE ( 'NONE', #199, #199, #171, .T. ) ;
ENDSEC;
END-ISO-10303-21;
