ISO-10303-21;
HEADER;
FILE_DESCRIPTION (( 'STEP AP203' ),
    '1' );
FILE_NAME ('962873.step',
    '2021-10-28T09:22:38',
    ( '' ),
    ( '' ),
    'SwSTEP 2.0',
    'SolidWorks 2019',
    '' );
FILE_SCHEMA (( 'CONFIG_CONTROL_DESIGN' ));
ENDSEC;

DATA;
#1 = CIRCLE ( 'NONE', #142, 0.4649999999999995248 ) ;
#2 = ADVANCED_FACE ( 'NONE', ( #175, #156 ), #34, .T. ) ;
#3 = CARTESIAN_POINT ( 'NONE',  ( 1.326762908760390423E-13, -4.653657836759941941E-15, 38.00000000000000000 ) ) ;
#4 = FACE_OUTER_BOUND ( 'NONE', #50, .T. ) ;
#5 = PERSON_AND_ORGANIZATION ( #23, #179 ) ;
#6 = APPROVAL_DATE_TIME ( #150, #7 ) ;
#7 = APPROVAL ( #26, 'UNSPECIFIED' ) ;
#8 = PERSON_AND_ORGANIZATION ( #23, #179 ) ;
#9 = AXIS2_PLACEMENT_3D ( 'NONE', #91, #57, #139 ) ;
#10 = DIRECTION ( 'NONE',  ( -4.275831445896958607E-31, -1.000000000000000000, -1.224646799147353207E-16 ) ) ;
#11 = AXIS2_PLACEMENT_3D ( 'NONE', #55, #178, #37 ) ;
#12 = CC_DESIGN_PERSON_AND_ORGANIZATION_ASSIGNMENT ( #95, #132, ( #116 ) ) ;
#13 = DIRECTION ( 'NONE',  ( -3.491481338843133355E-15, 1.224646799147353207E-16, -1.000000000000000000 ) ) ;
#14 = COORDINATED_UNIVERSAL_TIME_OFFSET ( 1, 0, .AHEAD. ) ;
#15 = LOCAL_TIME ( 11, 22, 38.00000000000000000, #75 ) ;
#16 = ORIENTED_EDGE ( 'NONE', *, *, #81, .F. ) ;
#17 = EDGE_LOOP ( 'NONE', ( #221 ) ) ;
#18 = ADVANCED_FACE ( 'NONE', ( #67, #173 ), #137, .T. ) ;
#19 = FACE_OUTER_BOUND ( 'NONE', #207, .T. ) ;
#20 = DESIGN_CONTEXT ( 'detailed design', #223, 'design' ) ;
#21 = DIRECTION ( 'NONE',  ( 0.0000000000000000000, 1.000000000000000000, 0.0000000000000000000 ) ) ;
#22 = CIRCLE ( 'NONE', #209, 0.4649999999999995248 ) ;
#23 = PERSON ( 'UNSPECIFIED', 'UNSPECIFIED', 'UNSPECIFIED', ('UNSPECIFIED'), ('UNSPECIFIED'), ('UNSPECIFIED') ) ;
#24 = CARTESIAN_POINT ( 'NONE',  ( 3.827596675728582230E-14, 1.499999999999997113, 10.96267258583377391 ) ) ;
#25 = CC_DESIGN_DATE_AND_TIME_ASSIGNMENT ( #136, #29, ( #130 ) ) ;
#26 = APPROVAL_STATUS ( 'not_yet_approved' ) ;
#27 = PERSON_AND_ORGANIZATION_ROLE ( 'creator' ) ;
#28 = CONICAL_SURFACE ( 'NONE', #129, 1.199999999999999956, 0.7853981633974453924 ) ;
#29 = DATE_TIME_ROLE ( 'classification_date' ) ;
#30 = SECURITY_CLASSIFICATION_LEVEL ( 'unclassified' ) ;
#31 = EDGE_LOOP ( 'NONE', ( #66 ) ) ;
#32 = APPROVAL_PERSON_ORGANIZATION ( #194, #79, #190 ) ;
#33 = EDGE_LOOP ( 'NONE', ( #210 ) ) ;
#34 = CONICAL_SURFACE ( 'NONE', #193, 1.499999999999998446, 0.2617993877991501295 ) ;
#35 = EDGE_LOOP ( 'NONE', ( #65 ) ) ;
#36 = EDGE_CURVE ( 'NONE', #216, #216, #22, .T. ) ;
#37 = DIRECTION ( 'NONE',  ( 4.275831445896958607E-31, 1.000000000000000000, 1.224646799147353207E-16 ) ) ;
#38 = FACE_BOUND ( 'NONE', #31, .T. ) ;
#39 = CARTESIAN_POINT ( 'NONE',  ( 0.0000000000000000000, 0.0000000000000000000, 0.0000000000000000000 ) ) ;
#40 = DATE_AND_TIME ( #183, #113 ) ;
#41 = CC_DESIGN_PERSON_AND_ORGANIZATION_ASSIGNMENT ( #5, #27, ( #220 ) ) ;
#42 = ADVANCED_FACE ( 'NONE', ( #19 ), #90, .F. ) ;
#43 = DIRECTION ( 'NONE',  ( 3.491481338843133355E-15, -1.224646799147353207E-16, 1.000000000000000000 ) ) ;
#44 = CARTESIAN_POINT ( 'NONE',  ( 1.316288464743861212E-13, 1.499999999999995337, 37.69999999999999574 ) ) ;
#45 = VERTEX_POINT ( 'NONE', #62 ) ;
#46 = CIRCLE ( 'NONE', #9, 1.499999999999998446 ) ;
#47 = ORIENTED_EDGE ( 'NONE', *, *, #36, .F. ) ;
#48 = APPLICATION_CONTEXT ( 'configuration controlled 3d designs of mechanical parts and assemblies' ) ;
#49 = EDGE_LOOP ( 'NONE', ( #219 ) ) ;
#50 = EDGE_LOOP ( 'NONE', ( #105 ) ) ;
#51 = EDGE_CURVE ( 'NONE', #147, #147, #138, .T. ) ;
#52 = DIRECTION ( 'NONE',  ( 3.491481338843133355E-15, -1.224646799147353207E-16, 1.000000000000000000 ) ) ;
#53 = DIRECTION ( 'NONE',  ( -4.275831445896958607E-31, -1.000000000000000000, -1.224646799147353207E-16 ) ) ;
#54 = APPROVAL_PERSON_ORGANIZATION ( #202, #7, #98 ) ;
#55 = CARTESIAN_POINT ( 'NONE',  ( 1.326762908760390423E-13, 8.998558695971077224E-33, 38.00000000000000000 ) ) ;
#56 = DIRECTION ( 'NONE',  ( -3.491481338843133355E-15, 1.224646799147353207E-16, -1.000000000000000000 ) ) ;
#57 = DIRECTION ( 'NONE',  ( -3.491481338843133355E-15, 1.229791517316362731E-16, -1.000000000000000000 ) ) ;
#58 = CIRCLE ( 'NONE', #68, 1.499999999999999778 ) ;
#59 = APPROVAL_STATUS ( 'not_yet_approved' ) ;
#60 = ADVANCED_FACE ( 'NONE', ( #144, #143 ), #141, .T. ) ;
#61 = CALENDAR_DATE ( 2021, 28, 10 ) ;
#62 = CARTESIAN_POINT ( 'NONE',  ( 2.478951750578624367E-14, 0.4649999999999986922, 7.099999999999999645 ) ) ;
#63 = MECHANICAL_CONTEXT ( 'NONE', #48, 'mechanical' ) ;
#64 = DATE_AND_TIME ( #83, #126 ) ;
#65 = ORIENTED_EDGE ( 'NONE', *, *, #140, .T. ) ;
#66 = ORIENTED_EDGE ( 'NONE', *, *, #51, .T. ) ;
#67 = FACE_OUTER_BOUND ( 'NONE', #49, .T. ) ;
#68 = AXIS2_PLACEMENT_3D ( 'NONE', #125, #89, #127 ) ;
#69 = ORIENTED_EDGE ( 'NONE', *, *, #182, .T. ) ;
#70 = DIRECTION ( 'NONE',  ( -4.141784826639221201E-31, -1.000000000000000000, -1.165808787618823186E-16 ) ) ;
#71 = DIRECTION ( 'NONE',  ( 0.0000000000000000000, 1.000000000000000000, 0.0000000000000000000 ) ) ;
#72 = AXIS2_PLACEMENT_3D ( 'NONE', #39, #97, #145 ) ;
#73 = PLANE ( 'NONE',  #101 ) ;
#74 = DIRECTION ( 'NONE',  ( -3.491481338843133355E-15, 1.229791517316362731E-16, -1.000000000000000000 ) ) ;
#75 = COORDINATED_UNIVERSAL_TIME_OFFSET ( 1, 0, .AHEAD. ) ;
#76 = PRODUCT_DEFINITION_SHAPE ( 'NONE', 'NONE',  #220 ) ;
#77 = COORDINATED_UNIVERSAL_TIME_OFFSET ( 1, 0, .AHEAD. ) ;
#78 = COORDINATED_UNIVERSAL_TIME_OFFSET ( 1, 0, .AHEAD. ) ;
#79 = APPROVAL ( #206, 'UNSPECIFIED' ) ;
#80 = CARTESIAN_POINT ( 'NONE',  ( 5.909198055881929149E-16, -2.072667668062452231E-17, 0.1692461589337860006 ) ) ;
#81 = EDGE_CURVE ( 'NONE', #45, #45, #214, .T. ) ;
#82 = APPROVAL_PERSON_ORGANIZATION ( #217, #187, #201 ) ;
#83 = CALENDAR_DATE ( 2021, 28, 10 ) ;
#84 = CALENDAR_DATE ( 2021, 28, 10 ) ;
#85 = AXIS2_PLACEMENT_3D ( 'NONE', #160, #177, #108 ) ;
#86 = PRODUCT_DEFINITION_FORMATION_WITH_SPECIFIED_SOURCE ( 'ANY', '', #116, .NOT_KNOWN. ) ;
#87 = DIRECTION ( 'NONE',  ( -3.491481338843133355E-15, 1.229791517316362731E-16, -1.000000000000000000 ) ) ;
#88 = CLOSED_SHELL ( 'NONE', ( #94, #60, #188 ) ) ;
#89 = DIRECTION ( 'NONE',  ( -3.491481338843133355E-15, 1.224646799147353207E-16, -1.000000000000000000 ) ) ;
#90 = PLANE ( 'NONE',  #11 ) ;
#91 = CARTESIAN_POINT ( 'NONE',  ( 3.827596675728582230E-14, -1.348180175317501049E-15, 10.96267258583377391 ) ) ;
#92 = LOCAL_TIME ( 11, 22, 38.00000000000000000, #77 ) ;
#93 = PLANE ( 'NONE',  #168 ) ;
#94 = ADVANCED_FACE ( 'NONE', ( #195 ), #93, .T. ) ;
#95 = PERSON_AND_ORGANIZATION ( #23, #179 ) ;
#96 = CLOSED_SHELL ( 'NONE', ( #18, #149, #42, #2, #205 ) ) ;
#97 = DIRECTION ( 'NONE',  ( 0.0000000000000000000, 0.0000000000000000000, 1.000000000000000000 ) ) ;
#98 = APPROVAL_ROLE ( '' ) ;
#99 = MANIFOLD_SOLID_BREP ( 'Corps-Déplacer/Copier1[2]', #88 ) ;
#100 = AXIS2_PLACEMENT_3D ( 'NONE', #112, #87, #109 ) ;
#101 = AXIS2_PLACEMENT_3D ( 'NONE', #203, #43, #10 ) ;
#102 = ORIENTED_EDGE ( 'NONE', *, *, #182, .F. ) ;
#103 = PERSON_AND_ORGANIZATION_ROLE ( 'classification_officer' ) ;
#104 = DIRECTION ( 'NONE',  ( 0.0000000000000000000, -1.000000000000000000, 0.0000000000000000000 ) ) ;
#105 = ORIENTED_EDGE ( 'NONE', *, *, #81, .T. ) ;
#106 = PERSON_AND_ORGANIZATION_ROLE ( 'creator' ) ;
#107 = DIRECTION ( 'NONE',  ( 4.275831445896959482E-31, 1.000000000000000000, 1.224646799147353207E-16 ) ) ;
#108 = DIRECTION ( 'NONE',  ( 0.0000000000000000000, 1.000000000000000000, 0.0000000000000000000 ) ) ;
#109 = DIRECTION ( 'NONE',  ( 0.0000000000000000000, 1.000000000000000000, 0.0000000000000000000 ) ) ;
#110 = CC_DESIGN_PERSON_AND_ORGANIZATION_ASSIGNMENT ( #8, #106, ( #86 ) ) ;
#111 = FACE_OUTER_BOUND ( 'NONE', #17, .T. ) ;
#112 = CARTESIAN_POINT ( 'NONE',  ( 2.478951750578624367E-14, -8.731519772946173392E-16, 7.099999999999999645 ) ) ;
#113 = LOCAL_TIME ( 11, 22, 38.00000000000000000, #119 ) ;
#114 = APPLICATION_PROTOCOL_DEFINITION ( 'international standard', 'config_control_design', 1994, #48 ) ;
#115 = APPROVAL_DATE_TIME ( #40, #187 ) ;
#116 = PRODUCT ( '962873', '962873', '', ( #63 ) ) ;
#117 = CARTESIAN_POINT ( 'NONE',  ( 1.326762908760390423E-13, 1.199999999999995293, 38.00000000000000000 ) ) ;
#118 = PRODUCT_RELATED_PRODUCT_CATEGORY ( 'detail', '', ( #116 ) ) ;
#119 = COORDINATED_UNIVERSAL_TIME_OFFSET ( 1, 0, .AHEAD. ) ;
#120 = VERTEX_POINT ( 'NONE', #218 ) ;
#121 = LOCAL_TIME ( 11, 22, 38.00000000000000000, #14 ) ;
#122 = EDGE_LOOP ( 'NONE', ( #16 ) ) ;
#123 = DIRECTION ( 'NONE',  ( 3.491481338843133355E-15, -1.229791517316362731E-16, 1.000000000000000000 ) ) ;
#124 = EDGE_LOOP ( 'NONE', ( #47 ) ) ;
#125 = CARTESIAN_POINT ( 'NONE',  ( 1.316288464743861212E-13, -4.616918432785521081E-15, 37.69999999999999574 ) ) ;
#126 = LOCAL_TIME ( 11, 22, 38.00000000000000000, #78 ) ;
#127 = DIRECTION ( 'NONE',  ( 0.0000000000000000000, 1.000000000000000000, 0.0000000000000000000 ) ) ;
#128 = CARTESIAN_POINT ( 'NONE',  ( 1.906192921252232855E-15, -6.686024735685322183E-17, 0.5459553513993090634 ) ) ;
#129 = AXIS2_PLACEMENT_3D ( 'NONE', #3, #56, #71 ) ;
#130 = SECURITY_CLASSIFICATION ( '', '', #30 ) ;
#131 = DATE_AND_TIME ( #61, #15 ) ;
#132 = PERSON_AND_ORGANIZATION_ROLE ( 'design_owner' ) ;
#133 = VERTEX_POINT ( 'NONE', #24 ) ;
#134 = PERSON_AND_ORGANIZATION ( #23, #179 ) ;
#135 = EDGE_LOOP ( 'NONE', ( #153 ) ) ;
#136 = DATE_AND_TIME ( #84, #121 ) ;
#137 = CYLINDRICAL_SURFACE ( 'NONE', #181, 1.499999999999998002 ) ;
#138 = CIRCLE ( 'NONE', #85, 1.199999999999999956 ) ;
#139 = DIRECTION ( 'NONE',  ( 0.0000000000000000000, 1.000000000000000000, 0.0000000000000000000 ) ) ;
#140 = EDGE_CURVE ( 'NONE', #151, #151, #58, .T. ) ;
#141 = CYLINDRICAL_SURFACE ( 'NONE', #185, 0.4649999999999995248 ) ;
#142 = AXIS2_PLACEMENT_3D ( 'NONE', #159, #74, #21 ) ;
#143 = FACE_OUTER_BOUND ( 'NONE', #124, .T. ) ;
#144 = FACE_OUTER_BOUND ( 'NONE', #171, .T. ) ;
#145 = DIRECTION ( 'NONE',  ( 1.000000000000000000, 0.0000000000000000000, 0.0000000000000000000 ) ) ;
#146 = CONICAL_SURFACE ( 'NONE', #186, 1.499999999999995559, 1.221730476396026388 ) ;
#147 = VERTEX_POINT ( 'NONE', #117 ) ;
#148 = CC_DESIGN_DATE_AND_TIME_ASSIGNMENT ( #131, #167, ( #220 ) ) ;
#149 = ADVANCED_FACE ( 'NONE', ( #111, #38 ), #28, .T. ) ;
#150 = DATE_AND_TIME ( #166, #92 ) ;
#151 = VERTEX_POINT ( 'NONE', #44 ) ;
#152 = PERSON_AND_ORGANIZATION_ROLE ( 'design_supplier' ) ;
#153 = ORIENTED_EDGE ( 'NONE', *, *, #36, .T. ) ;
#154 = APPROVAL_DATE_TIME ( #64, #79 ) ;
#155 = DIRECTION ( 'NONE',  ( -3.491481338843133355E-15, 1.224646799147353207E-16, -1.000000000000000000 ) ) ;
#156 = FACE_OUTER_BOUND ( 'NONE', #33, .T. ) ;
#157 = SHAPE_DEFINITION_REPRESENTATION ( #76, #192 ) ;
#158 = CC_DESIGN_APPROVAL ( #7, ( #86 ) ) ;
#159 = CARTESIAN_POINT ( 'NONE',  ( 2.478951750578624367E-14, -8.731519772946173392E-16, 7.099999999999999645 ) ) ;
#160 = CARTESIAN_POINT ( 'NONE',  ( 1.326762908760390423E-13, -4.653657836759941941E-15, 38.00000000000000000 ) ) ;
#161 = DIRECTION ( 'NONE',  ( -3.491481338843133355E-15, 1.229791517316362731E-16, -1.000000000000000000 ) ) ;
#162 =( GEOMETRIC_REPRESENTATION_CONTEXT ( 3 ) GLOBAL_UNCERTAINTY_ASSIGNED_CONTEXT ( ( #198 ) ) GLOBAL_UNIT_ASSIGNED_CONTEXT ( ( #165, #184, #199 ) ) REPRESENTATION_CONTEXT ( 'NONE', 'WORKASPACE' ) );
#163 = DIRECTION ( 'NONE',  ( 4.293794133377662246E-31, 1.000000000000000000, 1.229791517316362731E-16 ) ) ;
#164 = CARTESIAN_POINT ( 'NONE',  ( 5.909198055881927176E-16, -0.4649999999999995248, 0.1692461589337859451 ) ) ;
#165 =( LENGTH_UNIT ( ) NAMED_UNIT ( * ) SI_UNIT ( .MILLI., .METRE. ) );
#166 = CALENDAR_DATE ( 2021, 28, 10 ) ;
#167 = DATE_TIME_ROLE ( 'creation_date' ) ;
#168 = AXIS2_PLACEMENT_3D ( 'NONE', #180, #52, #53 ) ;
#169 = CARTESIAN_POINT ( 'NONE',  ( 0.0000000000000000000, 0.0000000000000000000, 0.0000000000000000000 ) ) ;
#170 = PERSON_AND_ORGANIZATION ( #23, #179 ) ;
#171 = EDGE_LOOP ( 'NONE', ( #69 ) ) ;
#172 = CC_DESIGN_PERSON_AND_ORGANIZATION_ASSIGNMENT ( #170, #152, ( #86 ) ) ;
#173 = FACE_OUTER_BOUND ( 'NONE', #35, .T. ) ;
#174 = MANIFOLD_SOLID_BREP ( 'Corps-Déplacer/Copier1[1]', #96 ) ;
#175 = FACE_BOUND ( 'NONE', #122, .T. ) ;
#176 = CARTESIAN_POINT ( 'NONE',  ( 0.0000000000000000000, 0.0000000000000000000, 0.0000000000000000000 ) ) ;
#177 = DIRECTION ( 'NONE',  ( -3.491481338843133355E-15, 1.224646799147353207E-16, -1.000000000000000000 ) ) ;
#178 = DIRECTION ( 'NONE',  ( -3.491481338843133355E-15, 1.224646799147353207E-16, -1.000000000000000000 ) ) ;
#179 = ORGANIZATION ( 'UNSPECIFIED', 'UNSPECIFIED', '' ) ;
#180 = CARTESIAN_POINT ( 'NONE',  ( 2.478951750578624367E-14, 1.124819836996389237E-32, 7.099999999999999645 ) ) ;
#181 = AXIS2_PLACEMENT_3D ( 'NONE', #169, #13, #107 ) ;
#182 = EDGE_CURVE ( 'NONE', #120, #120, #1, .T. ) ;
#183 = CALENDAR_DATE ( 2021, 28, 10 ) ;
#184 =( NAMED_UNIT ( * ) PLANE_ANGLE_UNIT ( ) SI_UNIT ( $, .RADIAN. ) );
#185 = AXIS2_PLACEMENT_3D ( 'NONE', #176, #161, #163 ) ;
#186 = AXIS2_PLACEMENT_3D ( 'NONE', #128, #213, #197 ) ;
#187 = APPROVAL ( #59, 'UNSPECIFIED' ) ;
#188 = ADVANCED_FACE ( 'NONE', ( #212 ), #146, .T. ) ;
#189 = ORIENTED_EDGE ( 'NONE', *, *, #51, .F. ) ;
#190 = APPROVAL_ROLE ( '' ) ;
#191 = EDGE_LOOP ( 'NONE', ( #102 ) ) ;
#192 = ADVANCED_BREP_SHAPE_REPRESENTATION ( '962873', ( #174, #99, #72 ), #162 ) ;
#193 = AXIS2_PLACEMENT_3D ( 'NONE', #222, #123, #104 ) ;
#194 = PERSON_AND_ORGANIZATION ( #23, #179 ) ;
#195 = FACE_OUTER_BOUND ( 'NONE', #191, .T. ) ;
#196 = CC_DESIGN_PERSON_AND_ORGANIZATION_ASSIGNMENT ( #134, #103, ( #130 ) ) ;
#197 = DIRECTION ( 'NONE',  ( -5.135813185032644414E-31, -1.000000000000000000, -1.445602896647343601E-16 ) ) ;
#198 = UNCERTAINTY_MEASURE_WITH_UNIT (LENGTH_MEASURE( 1.000000000000000082E-05 ), #165, 'distance_accuracy_value', 'NONE');
#199 =( NAMED_UNIT ( * ) SI_UNIT ( $, .STERADIAN. ) SOLID_ANGLE_UNIT ( ) );
#200 = EDGE_CURVE ( 'NONE', #133, #133, #46, .T. ) ;
#201 = APPROVAL_ROLE ( '' ) ;
#202 = PERSON_AND_ORGANIZATION ( #23, #179 ) ;
#203 = CARTESIAN_POINT ( 'NONE',  ( 2.478951750578624367E-14, 1.124819836996389237E-32, 7.099999999999999645 ) ) ;
#204 = CC_DESIGN_APPROVAL ( #79, ( #130 ) ) ;
#205 = ADVANCED_FACE ( 'NONE', ( #4 ), #73, .F. ) ;
#206 = APPROVAL_STATUS ( 'not_yet_approved' ) ;
#207 = EDGE_LOOP ( 'NONE', ( #189 ) ) ;
#208 = CC_DESIGN_SECURITY_CLASSIFICATION ( #130, ( #86 ) ) ;
#209 = AXIS2_PLACEMENT_3D ( 'NONE', #80, #155, #70 ) ;
#210 = ORIENTED_EDGE ( 'NONE', *, *, #200, .T. ) ;
#211 = CC_DESIGN_APPROVAL ( #187, ( #220 ) ) ;
#212 = FACE_OUTER_BOUND ( 'NONE', #135, .T. ) ;
#213 = DIRECTION ( 'NONE',  ( 3.491481338843133355E-15, -1.224646799147353207E-16, 1.000000000000000000 ) ) ;
#214 = CIRCLE ( 'NONE', #100, 0.4649999999999995248 ) ;
#215 = APPLICATION_PROTOCOL_DEFINITION ( 'international standard', 'config_control_design', 1994, #223 ) ;
#216 = VERTEX_POINT ( 'NONE', #164 ) ;
#217 = PERSON_AND_ORGANIZATION ( #23, #179 ) ;
#218 = CARTESIAN_POINT ( 'NONE',  ( 2.478951750578624367E-14, 0.4649999999999986922, 7.099999999999999645 ) ) ;
#219 = ORIENTED_EDGE ( 'NONE', *, *, #200, .F. ) ;
#220 = PRODUCT_DEFINITION ( 'UNKNOWN', '', #86, #20 ) ;
#221 = ORIENTED_EDGE ( 'NONE', *, *, #140, .F. ) ;
#222 = CARTESIAN_POINT ( 'NONE',  ( 3.827596675728582230E-14, -1.348180175317501049E-15, 10.96267258583377391 ) ) ;
#223 = APPLICATION_CONTEXT ( 'configuration controlled 3d designs of mechanical parts and assemblies' ) ;
ENDSEC;
END-ISO-10303-21;
